  0
SECTION
  2
HEADER
  9
$ACADVER
  1
AC1015
  9
$ACADMAINTVER
 70
     6
  9
$DWGCODEPAGE
  3
ANSI_1252
  9
$INSBASE
 10
0.0
 20
0.0
 30
0.0
  9
$EXTMIN
 10
1.000000000000000E+20
 20
1.000000000000000E+20
 30
1.000000000000000E+20
  9
$EXTMAX
 10
-1.000000000000000E+20
 20
-1.000000000000000E+20
 30
-1.000000000000000E+20
  9
$LIMMIN
 10
0.0
 20
0.0
  9
$LIMMAX
 10
420.0
 20
297.0
  9
$ORTHOMODE
 70
     0
  9
$REGENMODE
 70
     1
  9
$FILLMODE
 70
     1
  9
$QTEXTMODE
 70
     0
  9
$MIRRTEXT
 70
     0
  9
$LTSCALE
 40
1.0
  9
$ATTMODE
 70
     1
  9
$TEXTSIZE
 40
2.5
  9
$TRACEWID
 40
1.0
  9
$TEXTSTYLE
  7
Standard
  9
$CLAYER
  8
Futurebuild_Text
  9
$CELTYPE
  6
ByLayer
  9
$CECOLOR
 62
   256
  9
$CELTSCALE
 40
1.0
  9
$DISPSILH
 70
     0
  9
$DIMSCALE
 40
1.0
  9
$DIMASZ
 40
2.5
  9
$DIMEXO
 40
0.625
  9
$DIMDLI
 40
3.75
  9
$DIMRND
 40
0.0
  9
$DIMDLE
 40
0.0
  9
$DIMEXE
 40
1.25
  9
$DIMTP
 40
0.0
  9
$DIMTM
 40
0.0
  9
$DIMTXT
 40
2.5
  9
$DIMCEN
 40
2.5
  9
$DIMTSZ
 40
0.0
  9
$DIMTOL
 70
     0
  9
$DIMLIM
 70
     0
  9
$DIMTIH
 70
     0
  9
$DIMTOH
 70
     0
  9
$DIMSE1
 70
     0
  9
$DIMSE2
 70
     0
  9
$DIMTAD
 70
     1
  9
$DIMZIN
 70
     8
  9
$DIMBLK
  1

  9
$DIMASO
 70
     1
  9
$DIMSHO
 70
     1
  9
$DIMPOST
  1

  9
$DIMAPOST
  1

  9
$DIMALT
 70
     0
  9
$DIMALTD
 70
     3
  9
$DIMALTF
 40
0.03937007874016
  9
$DIMLFAC
 40
1.0
  9
$DIMTOFL
 70
     1
  9
$DIMTVP
 40
0.0
  9
$DIMTIX
 70
     0
  9
$DIMSOXD
 70
     0
  9
$DIMSAH
 70
     0
  9
$DIMBLK1
  1

  9
$DIMBLK2
  1

  9
$DIMSTYLE
  2
Dimstyle_3
  9
$DIMCLRD
 70
     0
  9
$DIMCLRE
 70
     0
  9
$DIMCLRT
 70
     0
  9
$DIMTFAC
 40
1.0
  9
$DIMGAP
 40
0.625
  9
$DIMJUST
 70
     0
  9
$DIMSD1
 70
     0
  9
$DIMSD2
 70
     0
  9
$DIMTOLJ
 70
     0
  9
$DIMTZIN
 70
     8
  9
$DIMALTZ
 70
     0
  9
$DIMALTTZ
 70
     0
  9
$DIMUPT
 70
     0
  9
$DIMDEC
 70
     2
  9
$DIMTDEC
 70
     2
  9
$DIMALTU
 70
     2
  9
$DIMALTTD
 70
     3
  9
$DIMTXSTY
  7
Standard
  9
$DIMAUNIT
 70
     0
  9
$DIMADEC
 70
     0
  9
$DIMALTRND
 40
0.0
  9
$DIMAZIN
 70
     0
  9
$DIMDSEP
 70
    44
  9
$DIMATFIT
 70
     3
  9
$DIMFRAC
 70
     0
  9
$DIMLDRBLK
  1

  9
$DIMLUNIT
 70
     2
  9
$DIMLWD
 70
    -2
  9
$DIMLWE
 70
    -2
  9
$DIMTMOVE
 70
     0
  9
$LUNITS
 70
     2
  9
$LUPREC
 70
     4
  9
$SKETCHINC
 40
1.0
  9
$FILLETRAD
 40
0.0
  9
$AUNITS
 70
     0
  9
$AUPREC
 70
     0
  9
$MENU
  1
.
  9
$ELEVATION
 40
0.0
  9
$PELEVATION
 40
0.0
  9
$THICKNESS
 40
0.0
  9
$LIMCHECK
 70
     0
  9
$CHAMFERA
 40
0.0
  9
$CHAMFERB
 40
0.0
  9
$CHAMFERC
 40
0.0
  9
$CHAMFERD
 40
0.0
  9
$SKPOLY
 70
     0
  9
$TDCREATE
 40
2453855.675959792
  9
$TDUCREATE
 40
2453855.175959792
  9
$TDUPDATE
 40
2454246.547486771
  9
$TDUUPDATE
 40
2454246.047486771
  9
$TDINDWG
 40
0.0673122454
  9
$TDUSRTIMER
 40
0.0673120139
  9
$USRTIMER
 70
     1
  9
$ANGBASE
 50
0.0
  9
$ANGDIR
 70
     0
  9
$PDMODE
 70
     0
  9
$PDSIZE
 40
0.0
  9
$PLINEWID
 40
0.0
  9
$SPLFRAME
 70
     0
  9
$SPLINETYPE
 70
     6
  9
$SPLINESEGS
 70
     8
  9
$HANDSEED
  5
73E
  9
$SURFTAB1
 70
     6
  9
$SURFTAB2
 70
     6
  9
$SURFTYPE
 70
     6
  9
$SURFU
 70
     6
  9
$SURFV
 70
     6
  9
$UCSBASE
  2

  9
$UCSNAME
  2

  9
$UCSORG
 10
0.0
 20
0.0
 30
0.0
  9
$UCSXDIR
 10
1.0
 20
0.0
 30
0.0
  9
$UCSYDIR
 10
0.0
 20
1.0
 30
0.0
  9
$UCSORTHOREF
  2

  9
$UCSORTHOVIEW
 70
     0
  9
$UCSORGTOP
 10
0.0
 20
0.0
 30
0.0
  9
$UCSORGBOTTOM
 10
0.0
 20
0.0
 30
0.0
  9
$UCSORGLEFT
 10
0.0
 20
0.0
 30
0.0
  9
$UCSORGRIGHT
 10
0.0
 20
0.0
 30
0.0
  9
$UCSORGFRONT
 10
0.0
 20
0.0
 30
0.0
  9
$UCSORGBACK
 10
0.0
 20
0.0
 30
0.0
  9
$PUCSBASE
  2

  9
$PUCSNAME
  2

  9
$PUCSORG
 10
0.0
 20
0.0
 30
0.0
  9
$PUCSXDIR
 10
1.0
 20
0.0
 30
0.0
  9
$PUCSYDIR
 10
0.0
 20
1.0
 30
0.0
  9
$PUCSORTHOREF
  2

  9
$PUCSORTHOVIEW
 70
     0
  9
$PUCSORGTOP
 10
0.0
 20
0.0
 30
0.0
  9
$PUCSORGBOTTOM
 10
0.0
 20
0.0
 30
0.0
  9
$PUCSORGLEFT
 10
0.0
 20
0.0
 30
0.0
  9
$PUCSORGRIGHT
 10
0.0
 20
0.0
 30
0.0
  9
$PUCSORGFRONT
 10
0.0
 20
0.0
 30
0.0
  9
$PUCSORGBACK
 10
0.0
 20
0.0
 30
0.0
  9
$USERI1
 70
     0
  9
$USERI2
 70
     0
  9
$USERI3
 70
     0
  9
$USERI4
 70
     0
  9
$USERI5
 70
     0
  9
$USERR1
 40
0.0
  9
$USERR2
 40
0.0
  9
$USERR3
 40
0.0
  9
$USERR4
 40
0.0
  9
$USERR5
 40
0.0
  9
$WORLDVIEW
 70
     1
  9
$SHADEDGE
 70
     3
  9
$SHADEDIF
 70
    70
  9
$TILEMODE
 70
     1
  9
$MAXACTVP
 70
    64
  9
$PINSBASE
 10
0.0
 20
0.0
 30
0.0
  9
$PLIMCHECK
 70
     0
  9
$PEXTMIN
 10
28.62791662216188
 20
19.91148309707643
 30
0.0
  9
$PEXTMAX
 10
257.6512495994568
 20
179.2033478736877
 30
0.0
  9
$PLIMMIN
 10
-5.32342529296875
 20
-5.323416709899902
  9
$PLIMMAX
 10
291.6448974609375
 20
204.5229120254517
  9
$UNITMODE
 70
     0
  9
$VISRETAIN
 70
     0
  9
$PLINEGEN
 70
     0
  9
$PSLTSCALE
 70
     1
  9
$TREEDEPTH
 70
  3020
  9
$CMLSTYLE
  2
Standard
  9
$CMLJUST
 70
     0
  9
$CMLSCALE
 40
20.0
  9
$PROXYGRAPHICS
 70
     1
  9
$MEASUREMENT
 70
     1
  9
$CELWEIGHT
370
    -1
  9
$ENDCAPS
280
     0
  9
$JOINSTYLE
280
     0
  9
$LWDISPLAY
290
     1
  9
$INSUNITS
 70
     4
  9
$HYPERLINKBASE
  1

  9
$STYLESHEET
  1

  9
$XEDIT
290
     1
  9
$CEPSNTYPE
380
     0
  9
$PSTYLEMODE
290
     1
  9
$FINGERPRINTGUID
  2
{C50FB8CE-E955-46C0-B56B-A0EAD968FA74}
  9
$VERSIONGUID
  2
{0BA8B77C-CFCC-4117-B979-ACA6FE66EAE8}
  9
$EXTNAMES
290
     1
  9
$PSVPSCALE
 40
0.0
  9
$OLESTARTUP
290
     0
  0
ENDSEC
  0
SECTION
  2
CLASSES
  0
CLASS
  1
ACDBDICTIONARYWDFLT
  2
AcDbDictionaryWithDefault
  3
ObjectDBX Classes
 90
        0
280
     0
281
     0
  0
CLASS
  1
ACDBPLACEHOLDER
  2
AcDbPlaceHolder
  3
ObjectDBX Classes
 90
        0
280
     0
281
     0
  0
CLASS
  1
LAYOUT
  2
AcDbLayout
  3
ObjectDBX Classes
 90
        0
280
     0
281
     0
  0
CLASS
  1
DICTIONARYVAR
  2
AcDbDictionaryVar
  3
ObjectDBX Classes
 90
        0
280
     0
281
     0
  0
CLASS
  1
TABLESTYLE
  2
AcDbTableStyle
  3
ObjectDBX Classes
 90
     2047
280
     0
281
     0
  0
ENDSEC
  0
SECTION
  2
TABLES
  0
TABLE
  2
VPORT
  5
8
330
0
100
AcDbSymbolTable
 70
     2
  0
VPORT
  5
543
330
8
100
AcDbSymbolTableRecord
100
AcDbViewportTableRecord
  2
*Active
 70
     0
 10
0.0
 20
0.0
 11
1.0
 21
1.0
 12
0.0
 22
0.0
 13
0.0
 23
0.0
 14
10.0
 24
10.0
 15
10.0
 25
10.0
 16
0.0
 26
0.0
 36
1.0
 17
2621.003641250839
 27
1345.56889738154
 37
0.0
 40
3433.046241276903
 41
1.511513516358611
 42
50.0
 43
0.0
 44
0.0
 50
0.0
 51
0.0
 71
     0
 72
  1000
 73
     1
 74
     3
 75
     0
 76
     0
 77
     0
 78
     0
281
     0
 65
     1
110
0.0
120
0.0
130
0.0
111
1.0
121
0.0
131
0.0
112
0.0
122
1.0
132
0.0
 79
     0
146
0.0
  0
ENDTAB
  0
TABLE
  2
LTYPE
  5
5
330
0
100
AcDbSymbolTable
 70
     1
  0
LTYPE
  5
14
330
5
100
AcDbSymbolTableRecord
100
AcDbLinetypeTableRecord
  2
ByBlock
 70
     0
  3

 72
    65
 73
     0
 40
0.0
  0
LTYPE
  5
15
330
5
100
AcDbSymbolTableRecord
100
AcDbLinetypeTableRecord
  2
ByLayer
 70
     0
  3

 72
    65
 73
     0
 40
0.0
  0
LTYPE
  5
16
330
5
100
AcDbSymbolTableRecord
100
AcDbLinetypeTableRecord
  2
Continuous
 70
     0
  3
Solid line
 72
    65
 73
     0
 40
0.0
  0
ENDTAB
  0
TABLE
  2
LAYER
  5
2
102
{ACAD_XDICTIONARY
360
ED
102
}
330
0
100
AcDbSymbolTable
 70
     9
  0
LAYER
  5
10
330
2
100
AcDbSymbolTableRecord
100
AcDbLayerTableRecord
  2
0
 70
     0
 62
     7
  6
Continuous
370
    -3
390
F
  0
LAYER
  5
F0
330
2
100
AcDbSymbolTableRecord
100
AcDbLayerTableRecord
  2
Futurebuild_LInes35
 70
     0
 62
     2
  6
Continuous
370
    -3
390
F
1001
AcAecLayerStandard
1000

1000

  0
LAYER
  5
FA
330
2
100
AcDbSymbolTableRecord
100
AcDbLayerTableRecord
  2
Futurebuild_Lines25
 70
     0
 62
     7
  6
Continuous
370
    -3
390
F
1001
AcAecLayerStandard
1000

1000

  0
LAYER
  5
FB
330
2
100
AcDbSymbolTableRecord
100
AcDbLayerTableRecord
  2
Futurebuild_Lines18
 70
     0
 62
     1
  6
Continuous
370
    -3
390
F
1001
AcAecLayerStandard
1000

1000

  0
LAYER
  5
FC
330
2
100
AcDbSymbolTableRecord
100
AcDbLayerTableRecord
  2
Futurebuild_Text
 70
     0
 62
     7
  6
Continuous
370
    -3
390
F
1001
AcAecLayerStandard
1000

1000

  0
LAYER
  5
FD
330
2
100
AcDbSymbolTableRecord
100
AcDbLayerTableRecord
  2
Futurebuild_Hatch
 70
     0
 62
     9
  6
Continuous
370
    -3
390
F
1001
AcAecLayerStandard
1000

1000

  0
LAYER
  5
11E
330
2
100
AcDbSymbolTableRecord
100
AcDbLayerTableRecord
  2
Futurebuild_Lines08
 70
     0
 62
     8
  6
Continuous
370
    -3
390
F
1001
AcAecLayerStandard
1000

1000

  0
LAYER
  5
517
330
2
100
AcDbSymbolTableRecord
100
AcDbLayerTableRecord
  2
Futurebuild_Lines50
 70
     0
 62
     3
  6
Continuous
370
    -3
390
F
1001
AcAecLayerStandard
1000

1000

  0
LAYER
  5
518
330
2
100
AcDbSymbolTableRecord
100
AcDbLayerTableRecord
  2
Futurebuild_Lines70
 70
     0
 62
     4
  6
Continuous
370
    -3
390
F
1001
AcAecLayerStandard
1000

1000

  0
ENDTAB
  0
TABLE
  2
STYLE
  5
3
330
0
100
AcDbSymbolTable
 70
     3
  0
STYLE
  5
11
330
3
100
AcDbSymbolTableRecord
100
AcDbTextStyleTableRecord
  2
Standard
 70
     0
 40
0.0
 41
1.0
 50
0.0
 71
     0
 42
2.5
  3
txt
  4

  0
STYLE
  5
E6
330
3
100
AcDbSymbolTableRecord
100
AcDbTextStyleTableRecord
  2

 70
     1
 40
0.0
 41
1.0
 50
0.0
 71
     0
 42
2.5
  3
ltypeshp.shx
  4

  0
STYLE
  5
71F
330
3
100
AcDbSymbolTableRecord
100
AcDbTextStyleTableRecord
  2
Arial
 70
     0
 40
0.0
 41
1.0
 50
0.0
 71
     0
 42
0.2
  3
ARIAL.TTF
  4

1001
ACAD
1000
Arial
1071
       34
  0
ENDTAB
  0
TABLE
  2
VIEW
  5
6
330
0
100
AcDbSymbolTable
 70
     0
  0
ENDTAB
  0
TABLE
  2
UCS
  5
7
330
0
100
AcDbSymbolTable
 70
     0
  0
ENDTAB
  0
TABLE
  2
APPID
  5
9
330
0
100
AcDbSymbolTable
 70
    11
  0
APPID
  5
12
330
9
100
AcDbSymbolTableRecord
100
AcDbRegAppTableRecord
  2
ACAD
 70
     0
  0
APPID
  5
9E
330
9
100
AcDbSymbolTableRecord
100
AcDbRegAppTableRecord
  2
ACAD_PSEXT
 70
     0
  0
APPID
  5
F1
330
9
100
AcDbSymbolTableRecord
100
AcDbRegAppTableRecord
  2
AcAecLayerStandard
 70
     0
  0
APPID
  5
133
330
9
100
AcDbSymbolTableRecord
100
AcDbRegAppTableRecord
  2
ACAD_DSTYLE_DIMTEXT_FILL
 70
     0
  0
APPID
  5
134
330
9
100
AcDbSymbolTableRecord
100
AcDbRegAppTableRecord
  2
ACAD_DSTYLE_DIMEXT_LENGTH
 70
     0
  0
APPID
  5
135
330
9
100
AcDbSymbolTableRecord
100
AcDbRegAppTableRecord
  2
ACAD_DSTYLE_DIMEXT_ENABLED
 70
     0
  0
APPID
  5
136
330
9
100
AcDbSymbolTableRecord
100
AcDbRegAppTableRecord
  2
ACAD_DSTYLE_DIM_LINETYPE
 70
     0
  0
APPID
  5
137
330
9
100
AcDbSymbolTableRecord
100
AcDbRegAppTableRecord
  2
ACAD_DSTYLE_DIM_EXT1_LINETYPE
 70
     0
  0
APPID
  5
138
330
9
100
AcDbSymbolTableRecord
100
AcDbRegAppTableRecord
  2
ACAD_DSTYLE_DIM_EXT2_LINETYPE
 70
     0
  0
APPID
  5
1F4
330
9
100
AcDbSymbolTableRecord
100
AcDbRegAppTableRecord
  2
ACAD_DSTYLE_DIMJOGGED_JOGANGLE_SYMBOL
 70
     0
  0
APPID
  5
228
330
9
100
AcDbSymbolTableRecord
100
AcDbRegAppTableRecord
  2
ACAD_DSTYLE_DIMARC_LENGTH_SYMBOL
 70
     0
  0
ENDTAB
  0
TABLE
  2
DIMSTYLE
  5
A
330
0
100
AcDbSymbolTable
 70
     3
100
AcDbDimStyleTable
  0
DIMSTYLE
105
27
330
A
100
AcDbSymbolTableRecord
100
AcDbDimStyleTableRecord
  2
ISO-25
 70
     0
 41
2.5
 42
0.625
 43
3.75
 44
1.25
 73
     0
 74
     0
 77
     1
 78
     8
140
2.5
141
2.5
143
0.03937007874016
147
0.625
171
     3
172
     1
271
     2
272
     2
274
     3
278
    44
283
     0
284
     8
340
11
  0
DIMSTYLE
105
22D
330
A
100
AcDbSymbolTableRecord
100
AcDbDimStyleTableRecord
  2
Dimstyle_3
 70
     0
 41
2.5
 42
0.625
 43
3.75
 44
1.25
 73
     0
 74
     0
 77
     1
 78
     8
140
2.5
141
2.5
143
0.03937007874016
147
0.625
171
     3
172
     1
271
     2
272
     2
274
     3
278
    44
283
     0
284
     8
340
11
1001
ACAD_DSTYLE_DIMEXT_LENGTH
1070
   378
1040
1.25
1001
ACAD_DSTYLE_DIMEXT_ENABLED
1070
   383
1070
     0
1001
ACAD_DSTYLE_DIMARC_LENGTH_SYMBOL
1070
   379
1070
     0
1001
ACAD_DSTYLE_DIMJOGGED_JOGANGLE_SYMBOL
1070
   384
1040
1.570796326794897
  0
DIMSTYLE
105
722
330
A
100
AcDbSymbolTableRecord
100
AcDbDimStyleTableRecord
  2
GENERATED_STYLE__1
 70
     0
 41
72.96
172
     1
340
0
341
723
  0
ENDTAB
  0
TABLE
  2
BLOCK_RECORD
  5
1
330
0
100
AcDbSymbolTable
 70
     2
  0
BLOCK_RECORD
  5
1F
330
1
100
AcDbSymbolTableRecord
100
AcDbBlockTableRecord
  2
*Model_Space
340
22
  0
BLOCK_RECORD
  5
10C
330
1
100
AcDbSymbolTableRecord
100
AcDbBlockTableRecord
  2
*Paper_Space
340
10D
  0
BLOCK_RECORD
  5
723
330
1
100
AcDbSymbolTableRecord
100
AcDbBlockTableRecord
  2
ARROWHEAD_5
340
0
  0
BLOCK_RECORD
  5
735
330
1
100
AcDbSymbolTableRecord
100
AcDbBlockTableRecord
  2
Untitled _STORY_MARKER
340
0
  0
ENDTAB
  0
ENDSEC
  0
SECTION
  2
BLOCKS
  0
BLOCK
  5
20
330
1F
100
AcDbEntity
  8
0
100
AcDbBlockBegin
  2
*Model_Space
 70
     0
 71
     0
 10
0.0
 20
0.0
 30
0.0
  3
*Model_Space
  1

  0
ENDBLK
  5
21
330
1F
100
AcDbEntity
  8
0
100
AcDbBlockEnd
  0
BLOCK
  5
10E
330
10C
100
AcDbEntity
 67
     1
  8
0
100
AcDbBlockBegin
  2
*Paper_Space
 70
     0
 71
     0
 10
0.0
 20
0.0
 30
0.0
  3
*Paper_Space
  1

  0
ENDBLK
  5
10F
330
10C
100
AcDbEntity
 67
     1
  8
0
100
AcDbBlockEnd
  0
BLOCK
  5
724
330
723
100
AcDbEntity
  8
0
100
AcDbBlockBegin
  2
ARROWHEAD_5
 70
     0
 71
     0
 10
0.0
 20
0.0
 30
0.0
  3
ARROWHEAD_5
  1

  0
SOLID
  5
726
330
723
100
AcDbEntity
  8
0
  6
Continuous
100
AcDbTrace
 10
-1.0
 20
0.2679
 30
0.0
 11
0.0
 21
0.0
 31
0.0
 12
-1.0
 22
-0.2679
 32
0.0
 13
-1.0
 23
0.2679
 33
0.0
  0
LINE
  5
727
330
723
100
AcDbEntity
  8
0
  6
Continuous
100
AcDbLine
 10
0.0
 20
0.0
 30
0.0
 11
-1.0
 21
0.0
 31
0.0
  0
ENDBLK
  5
725
330
723
100
AcDbEntity
  8
0
100
AcDbBlockEnd
  0
BLOCK
  5
736
330
735
100
AcDbEntity
  8
0
100
AcDbBlockBegin
  2
Untitled _STORY_MARKER
 70
     0
 71
     0
 10
0.0
 20
0.0
 30
0.0
  3
Untitled _STORY_MARKER
  1

  0
ENDBLK
  5
737
330
735
100
AcDbEntity
  8
0
100
AcDbBlockEnd
  0
ENDSEC
  0
SECTION
  2
ENTITIES
  0
LINE
  5
544
330
1F
100
AcDbEntity
  8
Futurebuild_Lines25
  6
Continuous
100
AcDbLine
 10
3512.568898649233
 20
1811.859519722176
 30
0.0
 11
3643.674164238575
 21
1736.165859341993
 31
0.0
  0
LINE
  5
545
330
1F
100
AcDbEntity
  8
Futurebuild_Lines25
  6
Continuous
100
AcDbLine
 10
3512.568898649233
 20
1793.150748578941
 30
0.0
 11
3627.471893154944
 21
1726.811473770375
 31
0.0
  0
LINE
  5
546
330
1F
100
AcDbEntity
  8
Futurebuild_Lines25
  6
Continuous
100
AcDbLine
 10
3512.568898649233
 20
1757.150748578941
 30
0.0
 11
3627.471893154944
 21
1690.811473770375
 31
0.0
  0
LINE
  5
547
330
1F
100
AcDbEntity
  8
Futurebuild_Lines25
  6
Continuous
100
AcDbLine
 10
1460.159841480409
 20
639.5132773181632
 30
0.0
 11
1571.356602922312
 21
575.3137971666666
 31
0.0
  0
LINE
  5
548
330
1F
100
AcDbEntity
  8
Futurebuild_Lines25
  6
Continuous
100
AcDbLine
 10
1476.36211256404
 20
648.8676628897807
 30
0.0
 11
1571.356602922312
 21
594.0225683099021
 31
0.0
  0
LINE
  5
549
330
1F
100
AcDbEntity
  8
Futurebuild_Lines25
  6
Continuous
100
AcDbLine
 10
77.32923145958193
 20
1401.890902257343
 30
0.0
 11
1564.814353164499
 21
543.0909668254465
 31
0.0
  0
LINE
  5
54A
330
1F
100
AcDbEntity
  8
Futurebuild_Lines25
  6
Continuous
100
AcDbLine
 10
77.32923145958193
 20
1437.890902257343
 30
0.0
 11
1408.913305328536
 21
669.1004787604833
 31
0.0
  0
LINE
  5
54B
330
1F
100
AcDbEntity
  8
Futurebuild_Lines25
  6
Continuous
100
AcDbLine
 10
93.53150254321285
 20
1447.24528782896
 30
0.0
 11
77.32923145958193
 21
1437.890902257343
 31
0.0
  0
LINE
  5
54C
330
1F
100
AcDbEntity
  8
Futurebuild_Lines25
  6
Continuous
100
AcDbLine
 10
77.32923145958193
 20
1437.890902257343
 30
0.0
 11
77.32923145958193
 21
1401.890902257343
 31
0.0
  0
LINE
  5
54D
330
1F
100
AcDbEntity
  8
Futurebuild_Lines25
  6
Continuous
100
AcDbLine
 10
1602.188007701058
 20
521.5132773181629
 30
0.0
 11
1602.188007701058
 21
557.5132773181629
 31
0.0
  0
LINE
  5
54E
330
1F
100
AcDbEntity
  8
Futurebuild_Lines25
  6
Continuous
100
AcDbLine
 10
77.32923145958193
 20
1601.890902257342
 30
0.0
 11
1545.32878157935
 21
754.3409668254448
 31
0.0
  0
LINE
  5
54F
330
1F
100
AcDbEntity
  8
Futurebuild_Lines25
  6
Continuous
100
AcDbLine
 10
77.32923145958193
 20
1565.890902257342
 30
0.0
 11
1514.151867043109
 21
736.3409668254448
 31
0.0
  0
LINE
  5
550
330
1F
100
AcDbEntity
  8
Futurebuild_Lines25
  6
Continuous
100
AcDbLine
 10
117.8349091686588
 20
1625.276866186387
 30
0.0
 11
1585.834459288427
 21
777.7269307544889
 31
0.0
  0
LINE
  5
551
330
1F
100
AcDbEntity
  8
Futurebuild_Lines25
  6
Continuous
100
AcDbLine
 10
77.32923145958193
 20
1601.890902257342
 30
0.0
 11
77.32923145958193
 21
1565.890902257342
 31
0.0
  0
LINE
  5
552
330
1F
100
AcDbEntity
  8
Futurebuild_Lines25
  6
Continuous
100
AcDbLine
 10
117.8349091686588
 20
1625.276866186387
 30
0.0
 11
77.32923145958193
 21
1601.890902257342
 31
0.0
  0
LINE
  5
553
330
1F
100
AcDbEntity
  8
Futurebuild_Lines25
  6
Continuous
100
AcDbLine
 10
1602.188007701058
 20
685.5132773181629
 30
0.0
 11
1602.188007701058
 21
721.513277318163
 31
0.0
  0
LINE
  5
554
330
1F
100
AcDbEntity
  8
Futurebuild_Lines25
  6
Continuous
100
AcDbLine
 10
93.53150254321285
 20
1447.24528782896
 30
0.0
 11
1419.502886442333
 21
681.6953523970624
 31
0.0
  0
LINE
  5
555
330
1F
100
AcDbEntity
  8
Futurebuild_Lines25
  6
Continuous
100
AcDbLine
 10
93.53150254321285
 20
1556.536516685725
 30
0.0
 11
93.53150254321285
 21
1447.24528782896
 31
0.0
  0
LINE
  5
556
330
1F
100
AcDbEntity
  8
Futurebuild_Lines25
  6
Continuous
100
AcDbLine
 10
482.3860085503595
 20
1635.750541547785
 30
0.0
 11
804.6328934798472
 21
1449.701215788227
 31
0.0
  0
LINE
  5
557
330
1F
100
AcDbEntity
  8
Futurebuild_Lines25
  6
Continuous
100
AcDbLine
 10
1015.208075661186
 20
1328.125577671176
 30
0.0
 11
1777.180477913239
 21
888.2006061158872
 31
0.0
  0
LINE
  5
558
330
1F
100
AcDbEntity
  8
Futurebuild_Lines25
  6
Continuous
100
AcDbLine
 10
482.3860085503595
 20
1671.750541547785
 30
0.0
 11
835.8098080160871
 21
1467.701215788227
 31
0.0
  0
LINE
  5
559
330
1F
100
AcDbEntity
  8
Futurebuild_Lines25
  6
Continuous
100
AcDbLine
 10
1000.258613846563
 20
1372.756653474089
 30
0.0
 11
1808.357392449478
 21
906.2006061158872
 31
0.0
  0
LINE
  5
55A
330
1F
100
AcDbEntity
  8
Futurebuild_Lines25
  6
Continuous
100
AcDbLine
 10
498.5882796339905
 20
1681.104927119402
 30
0.0
 11
482.3860085503595
 21
1671.750541547785
 31
0.0
  0
LINE
  5
55B
330
1F
100
AcDbEntity
  8
Futurebuild_Lines25
  6
Continuous
100
AcDbLine
 10
482.3860085503595
 20
1671.750541547785
 30
0.0
 11
482.3860085503595
 21
1635.750541547785
 31
0.0
  0
LINE
  5
55C
330
1F
100
AcDbEntity
  8
Futurebuild_Lines25
  6
Continuous
100
AcDbLine
 10
482.3860085503595
 20
1835.750541547785
 30
0.0
 11
1950.385558670127
 21
988.2006061158871
 31
0.0
  0
LINE
  5
55D
330
1F
100
AcDbEntity
  8
Futurebuild_Lines25
  6
Continuous
100
AcDbLine
 10
482.3860085503595
 20
1799.750541547785
 30
0.0
 11
946.661059700495
 21
1531.701215788227
 31
0.0
  0
LINE
  5
55E
330
1F
100
AcDbEntity
  8
Futurebuild_Lines25
  6
Continuous
100
AcDbLine
 10
1015.208075661186
 20
1492.125577671176
 30
0.0
 11
1919.208644133887
 21
970.2006061158871
 31
0.0
  0
LINE
  5
55F
330
1F
100
AcDbEntity
  8
Futurebuild_Lines25
  6
Continuous
100
AcDbLine
 10
522.8916862594373
 20
1859.13650547683
 30
0.0
 11
1990.891236379204
 21
1011.586570044932
 31
0.0
  0
LINE
  5
560
330
1F
100
AcDbEntity
  8
Futurebuild_Lines25
  6
Continuous
100
AcDbLine
 10
482.3860085503595
 20
1835.750541547785
 30
0.0
 11
482.3860085503595
 21
1799.750541547785
 31
0.0
  0
LINE
  5
561
330
1F
100
AcDbEntity
  8
Futurebuild_Lines25
  6
Continuous
100
AcDbLine
 10
522.8916862594373
 20
1859.13650547683
 30
0.0
 11
482.3860085503595
 21
1835.750541547785
 31
0.0
  0
LINE
  5
562
330
1F
100
AcDbEntity
  8
Futurebuild_Lines25
  6
Continuous
100
AcDbLine
 10
498.5882796339905
 20
1681.104927119402
 30
0.0
 11
852.0120790997181
 21
1477.055601359845
 31
0.0
  0
LINE
  5
563
330
1F
100
AcDbEntity
  8
Futurebuild_Lines25
  6
Continuous
100
AcDbLine
 10
1000.262166958668
 20
1391.463373227094
 30
0.0
 11
1824.55966353311
 21
915.5549916875046
 31
0.0
  0
LINE
  5
564
330
1F
100
AcDbEntity
  8
Futurebuild_Lines25
  6
Continuous
100
AcDbLine
 10
498.5882796339905
 20
1790.396155976167
 30
0.0
 11
498.5882796339905
 21
1681.104927119402
 31
0.0
  0
LINE
  5
565
330
1F
100
AcDbEntity
  8
Futurebuild_Lines25
  6
Continuous
100
AcDbLine
 10
887.4427856411362
 20
1869.610180838227
 30
0.0
 11
1209.689670570622
 21
1683.56085507867
 31
0.0
  0
LINE
  5
566
330
1F
100
AcDbEntity
  8
Futurebuild_Lines25
  6
Continuous
100
AcDbLine
 10
1420.264852751963
 20
1561.985216961618
 30
0.0
 11
2182.237255004016
 21
1122.060245406329
 31
0.0
  0
LINE
  5
567
330
1F
100
AcDbEntity
  8
Futurebuild_Lines25
  6
Continuous
100
AcDbLine
 10
887.4427856411362
 20
1905.610180838227
 30
0.0
 11
1240.866585106862
 21
1701.56085507867
 31
0.0
  0
LINE
  5
568
330
1F
100
AcDbEntity
  8
Futurebuild_Lines25
  6
Continuous
100
AcDbLine
 10
1405.315390937339
 20
1606.616292764531
 30
0.0
 11
2213.414169540256
 21
1140.06024540633
 31
0.0
  0
LINE
  5
569
330
1F
100
AcDbEntity
  8
Futurebuild_Lines25
  6
Continuous
100
AcDbLine
 10
903.6450567247672
 20
1914.964566409845
 30
0.0
 11
887.4427856411362
 21
1905.610180838227
 31
0.0
  0
LINE
  5
56A
330
1F
100
AcDbEntity
  8
Futurebuild_Lines25
  6
Continuous
100
AcDbLine
 10
887.4427856411362
 20
1905.610180838227
 30
0.0
 11
887.4427856411362
 21
1869.610180838227
 31
0.0
  0
LINE
  5
56B
330
1F
100
AcDbEntity
  8
Futurebuild_Lines25
  6
Continuous
100
AcDbLine
 10
887.4427856411362
 20
2069.610180838227
 30
0.0
 11
2355.442335760903
 21
1222.060245406329
 31
0.0
  0
LINE
  5
56C
330
1F
100
AcDbEntity
  8
Futurebuild_Lines25
  6
Continuous
100
AcDbLine
 10
887.4427856411362
 20
2033.610180838228
 30
0.0
 11
1351.717836791271
 21
1765.56085507867
 31
0.0
  0
LINE
  5
56D
330
1F
100
AcDbEntity
  8
Futurebuild_Lines25
  6
Continuous
100
AcDbLine
 10
1420.264852751963
 20
1725.985216961619
 30
0.0
 11
2324.265421224663
 21
1204.060245406329
 31
0.0
  0
LINE
  5
56E
330
1F
100
AcDbEntity
  8
Futurebuild_Lines25
  6
Continuous
100
AcDbLine
 10
927.948463350214
 20
2092.996144767272
 30
0.0
 11
2395.948013469981
 21
1245.446209335374
 31
0.0
  0
LINE
  5
56F
330
1F
100
AcDbEntity
  8
Futurebuild_Lines25
  6
Continuous
100
AcDbLine
 10
887.4427856411362
 20
2069.610180838227
 30
0.0
 11
887.4427856411362
 21
2033.610180838228
 31
0.0
  0
LINE
  5
570
330
1F
100
AcDbEntity
  8
Futurebuild_Lines25
  6
Continuous
100
AcDbLine
 10
927.948463350214
 20
2092.996144767272
 30
0.0
 11
887.4427856411362
 21
2069.610180838227
 31
0.0
  0
LINE
  5
571
330
1F
100
AcDbEntity
  8
Futurebuild_Lines25
  6
Continuous
100
AcDbLine
 10
903.6450567247672
 20
1914.964566409845
 30
0.0
 11
1257.068856190493
 21
1710.915240650287
 31
0.0
  0
LINE
  5
572
330
1F
100
AcDbEntity
  8
Futurebuild_Lines25
  6
Continuous
100
AcDbLine
 10
1405.318944049458
 20
1625.323012517528
 30
0.0
 11
2229.616440623886
 21
1149.414630977947
 31
0.0
  0
LINE
  5
573
330
1F
100
AcDbEntity
  8
Futurebuild_Lines25
  6
Continuous
100
AcDbLine
 10
903.6450567247672
 20
2024.25579526661
 30
0.0
 11
903.6450567247672
 21
1914.964566409845
 31
0.0
  0
LINE
  5
574
330
1F
100
AcDbEntity
  8
Futurebuild_Lines25
  6
Continuous
100
AcDbLine
 10
1292.499562731914
 20
2103.46982012867
 30
0.0
 11
1614.7464476614
 21
1917.420494369113
 31
0.0
  0
LINE
  5
575
330
1F
100
AcDbEntity
  8
Futurebuild_Lines25
  6
Continuous
100
AcDbLine
 10
1825.32162984274
 20
1795.844856252061
 30
0.0
 11
2587.294032094794
 21
1355.919884696772
 31
0.0
  0
LINE
  5
576
330
1F
100
AcDbEntity
  8
Futurebuild_Lines25
  6
Continuous
100
AcDbLine
 10
1292.499562731914
 20
2139.46982012867
 30
0.0
 11
1645.92336219764
 21
1935.420494369112
 31
0.0
  0
LINE
  5
577
330
1F
100
AcDbEntity
  8
Futurebuild_Lines25
  6
Continuous
100
AcDbLine
 10
1810.372168028117
 20
1840.475932054974
 30
0.0
 11
2618.470946631033
 21
1373.919884696772
 31
0.0
  0
LINE
  5
578
330
1F
100
AcDbEntity
  8
Futurebuild_Lines25
  6
Continuous
100
AcDbLine
 10
1308.701833815545
 20
2148.824205700287
 30
0.0
 11
1292.499562731914
 21
2139.46982012867
 31
0.0
  0
LINE
  5
579
330
1F
100
AcDbEntity
  8
Futurebuild_Lines25
  6
Continuous
100
AcDbLine
 10
1292.499562731914
 20
2139.46982012867
 30
0.0
 11
1292.499562731914
 21
2103.46982012867
 31
0.0
  0
LINE
  5
57A
330
1F
100
AcDbEntity
  8
Futurebuild_Lines25
  6
Continuous
100
AcDbLine
 10
1292.499562731914
 20
2303.46982012867
 30
0.0
 11
2760.499112851681
 21
1455.919884696772
 31
0.0
  0
LINE
  5
57B
330
1F
100
AcDbEntity
  8
Futurebuild_Lines25
  6
Continuous
100
AcDbLine
 10
1292.499562731914
 20
2267.46982012867
 30
0.0
 11
1756.774613882048
 21
1999.420494369112
 31
0.0
  0
LINE
  5
57C
330
1F
100
AcDbEntity
  8
Futurebuild_Lines25
  6
Continuous
100
AcDbLine
 10
1825.32162984274
 20
1959.844856252061
 30
0.0
 11
2729.322198315441
 21
1437.919884696772
 31
0.0
  0
LINE
  5
57D
330
1F
100
AcDbEntity
  8
Futurebuild_Lines25
  6
Continuous
100
AcDbLine
 10
1333.005240440992
 20
2326.855784057715
 30
0.0
 11
2801.004790560759
 21
1479.305848625816
 31
0.0
  0
LINE
  5
57E
330
1F
100
AcDbEntity
  8
Futurebuild_Lines25
  6
Continuous
100
AcDbLine
 10
1292.499562731914
 20
2303.46982012867
 30
0.0
 11
1292.499562731914
 21
2267.46982012867
 31
0.0
  0
LINE
  5
57F
330
1F
100
AcDbEntity
  8
Futurebuild_Lines25
  6
Continuous
100
AcDbLine
 10
1333.005240440992
 20
2326.855784057715
 30
0.0
 11
1292.499562731914
 21
2303.46982012867
 31
0.0
  0
LINE
  5
580
330
1F
100
AcDbEntity
  8
Futurebuild_Lines25
  6
Continuous
100
AcDbLine
 10
1308.701833815545
 20
2148.824205700287
 30
0.0
 11
1662.125633281271
 21
1944.77487994073
 31
0.0
  0
LINE
  5
581
330
1F
100
AcDbEntity
  8
Futurebuild_Lines25
  6
Continuous
100
AcDbLine
 10
1810.375721140232
 20
1859.182651807973
 30
0.0
 11
2634.673217714663
 21
1383.27427026839
 31
0.0
  0
LINE
  5
582
330
1F
100
AcDbEntity
  8
Futurebuild_Lines25
  6
Continuous
100
AcDbLine
 10
1308.701833815545
 20
2258.115434557053
 30
0.0
 11
1308.701833815545
 21
2148.824205700287
 31
0.0
  0
LINE
  5
583
330
1F
100
AcDbEntity
  8
Futurebuild_Lines25
  6
Continuous
100
AcDbLine
 10
1697.556339822692
 20
2337.329459419113
 30
0.0
 11
2019.803224752177
 21
2151.280133659556
 31
0.0
  0
LINE
  5
584
330
1F
100
AcDbEntity
  8
Futurebuild_Lines25
  6
Continuous
100
AcDbLine
 10
2230.381960045626
 20
2029.702444152272
 30
0.0
 11
2992.350809185572
 21
1589.779523987215
 31
0.0
  0
LINE
  5
585
330
1F
100
AcDbEntity
  8
Futurebuild_Lines25
  6
Continuous
100
AcDbLine
 10
1697.556339822692
 20
2373.329459419113
 30
0.0
 11
2050.980139288418
 21
2169.280133659556
 31
0.0
  0
LINE
  5
586
330
1F
100
AcDbEntity
  8
Futurebuild_Lines25
  6
Continuous
100
AcDbLine
 10
2215.428945118895
 20
2074.335571345417
 30
0.0
 11
3023.527723721813
 21
1607.779523987215
 31
0.0
  0
LINE
  5
587
330
1F
100
AcDbEntity
  8
Futurebuild_Lines25
  6
Continuous
100
AcDbLine
 10
1713.758610906323
 20
2382.68384499073
 30
0.0
 11
1697.556339822692
 21
2373.329459419113
 31
0.0
  0
LINE
  5
588
330
1F
100
AcDbEntity
  8
Futurebuild_Lines25
  6
Continuous
100
AcDbLine
 10
1697.556339822692
 20
2373.329459419113
 30
0.0
 11
1697.556339822692
 21
2337.329459419113
 31
0.0
  0
LINE
  5
589
330
1F
100
AcDbEntity
  8
Futurebuild_Lines25
  6
Continuous
100
AcDbLine
 10
1697.556339822692
 20
2537.329459419113
 30
0.0
 11
3165.55588994246
 21
1689.779523987215
 31
0.0
  0
LINE
  5
58A
330
1F
100
AcDbEntity
  8
Futurebuild_Lines25
  6
Continuous
100
AcDbLine
 10
1697.556339822692
 20
2501.329459419113
 30
0.0
 11
2161.831390972826
 21
2233.280133659556
 31
0.0
  0
LINE
  5
58B
330
1F
100
AcDbEntity
  8
Futurebuild_Lines25
  6
Continuous
100
AcDbLine
 10
2230.378406933519
 20
2193.704495542504
 30
0.0
 11
3134.37897540622
 21
1671.779523987215
 31
0.0
  0
LINE
  5
58C
330
1F
100
AcDbEntity
  8
Futurebuild_Lines25
  6
Continuous
100
AcDbLine
 10
1738.06201753177
 20
2560.715423348157
 30
0.0
 11
3206.061567651538
 21
1713.16548791626
 31
0.0
  0
LINE
  5
58D
330
1F
100
AcDbEntity
  8
Futurebuild_Lines25
  6
Continuous
100
AcDbLine
 10
1697.556339822692
 20
2537.329459419113
 30
0.0
 11
1697.556339822692
 21
2501.329459419113
 31
0.0
  0
LINE
  5
58E
330
1F
100
AcDbEntity
  8
Futurebuild_Lines25
  6
Continuous
100
AcDbLine
 10
1738.06201753177
 20
2560.715423348157
 30
0.0
 11
1697.556339822692
 21
2537.329459419113
 31
0.0
  0
LINE
  5
58F
330
1F
100
AcDbEntity
  8
Futurebuild_Lines25
  6
Continuous
100
AcDbLine
 10
1713.758610906323
 20
2382.68384499073
 30
0.0
 11
2067.182410372048
 21
2178.634519231173
 31
0.0
  0
LINE
  5
590
330
1F
100
AcDbEntity
  8
Futurebuild_Lines25
  6
Continuous
100
AcDbLine
 10
2215.432498231013
 20
2093.042291098415
 30
0.0
 11
3039.729994805443
 21
1617.133909558833
 31
0.0
  0
LINE
  5
591
330
1F
100
AcDbEntity
  8
Futurebuild_Lines25
  6
Continuous
100
AcDbLine
 10
1713.758610906323
 20
2491.975073847496
 30
0.0
 11
1713.758610906323
 21
2382.68384499073
 31
0.0
  0
LINE
  5
592
330
1F
100
AcDbEntity
  8
Futurebuild_Lines25
  6
Continuous
100
AcDbLine
 10
2102.613116913469
 20
2571.189098709555
 30
0.0
 11
2424.860001842959
 21
2385.139772949995
 31
0.0
  0
LINE
  5
593
330
1F
100
AcDbEntity
  8
Futurebuild_Lines25
  6
Continuous
100
AcDbLine
 10
2635.435184024296
 20
2263.564134832946
 30
0.0
 11
3397.407586276348
 21
1823.639163277658
 31
0.0
  0
LINE
  5
594
330
1F
100
AcDbEntity
  8
Futurebuild_Lines25
  6
Continuous
100
AcDbLine
 10
3651.775299780388
 20
1759.551823271039
 30
0.0
 11
3667.977570864021
 21
1750.197437699419
 31
0.0
  0
LINE
  5
595
330
1F
100
AcDbEntity
  8
Futurebuild_Lines25
  6
Continuous
100
AcDbLine
 10
2102.613116913469
 20
2607.189098709555
 30
0.0
 11
2456.036916379199
 21
2403.139772949995
 31
0.0
  0
LINE
  5
596
330
1F
100
AcDbEntity
  8
Futurebuild_Lines25
  6
Continuous
100
AcDbLine
 10
2620.485722209672
 20
2308.195210635859
 30
0.0
 11
3428.584500812588
 21
1841.639163277657
 31
0.0
  0
LINE
  5
597
330
1F
100
AcDbEntity
  8
Futurebuild_Lines25
  6
Continuous
100
AcDbLine
 10
2118.8153879971
 20
2616.543484281172
 30
0.0
 11
2102.613116913469
 21
2607.189098709555
 31
0.0
  0
LINE
  5
598
330
1F
100
AcDbEntity
  8
Futurebuild_Lines25
  6
Continuous
100
AcDbLine
 10
2102.613116913469
 20
2607.189098709555
 30
0.0
 11
2102.613116913469
 21
2571.189098709555
 31
0.0
  0
LINE
  5
599
330
1F
100
AcDbEntity
  8
Futurebuild_Lines25
  6
Continuous
100
AcDbLine
 10
3667.977570864021
 20
1714.197437699419
 30
0.0
 11
3627.471893154944
 21
1690.811473770375
 31
0.0
  0
LINE
  5
59A
330
1F
100
AcDbEntity
  8
Futurebuild_Lines25
  6
Continuous
100
AcDbLine
 10
3667.977570864021
 20
1750.197437699419
 30
0.0
 11
3667.977570864021
 21
1714.197437699419
 31
0.0
  0
LINE
  5
59B
330
1F
100
AcDbEntity
  8
Futurebuild_Lines25
  6
Continuous
100
AcDbLine
 10
3651.77529978039
 20
1740.843052127802
 30
0.0
 11
3667.977570864021
 21
1750.197437699419
 31
0.0
  0
LINE
  5
59C
330
1F
100
AcDbEntity
  8
Futurebuild_Lines25
  6
Continuous
100
AcDbLine
 10
3650.875173609077
 20
1730.32336404049
 30
0.0
 11
3651.77529978039
 21
1740.843052127802
 31
0.0
  0
LINE
  5
59D
330
1F
100
AcDbEntity
  8
Futurebuild_Lines25
  6
Continuous
100
AcDbLine
 10
3644.574290409888
 20
1726.685547429305
 30
0.0
 11
3650.875173609077
 21
1730.32336404049
 31
0.0
  0
LINE
  5
59E
330
1F
100
AcDbEntity
  8
Futurebuild_Lines25
  6
Continuous
100
AcDbLine
 10
3643.674164238575
 20
1736.165859341993
 30
0.0
 11
3644.574290409888
 21
1726.685547429305
 31
0.0
  0
LINE
  5
59F
330
1F
100
AcDbEntity
  8
Futurebuild_Lines25
  6
Continuous
100
AcDbLine
 10
3627.471893154944
 20
1726.811473770375
 30
0.0
 11
3643.674164238575
 21
1736.165859341993
 31
0.0
  0
LINE
  5
5A0
330
1F
100
AcDbEntity
  8
Futurebuild_Lines25
  6
Continuous
100
AcDbLine
 10
3627.471893154944
 20
1690.811473770375
 30
0.0
 11
3627.471893154944
 21
1726.811473770375
 31
0.0
  0
LINE
  5
5A1
330
1F
100
AcDbEntity
  8
Futurebuild_Lines25
  6
Continuous
100
AcDbLine
 10
2102.613116913469
 20
2771.189098709555
 30
0.0
 11
3570.612667033236
 21
1923.639163277657
 31
0.0
  0
LINE
  5
5A2
330
1F
100
AcDbEntity
  8
Futurebuild_Lines25
  6
Continuous
100
AcDbLine
 10
2102.613116913469
 20
2735.189098709555
 30
0.0
 11
2566.888168063607
 21
2467.139772949995
 31
0.0
  0
LINE
  5
5A3
330
1F
100
AcDbEntity
  8
Futurebuild_Lines25
  6
Continuous
100
AcDbLine
 10
2635.438737136402
 20
2427.562083442715
 30
0.0
 11
3539.435752496996
 21
1905.639163277657
 31
0.0
  0
LINE
  5
5A4
330
1F
100
AcDbEntity
  8
Futurebuild_Lines25
  6
Continuous
100
AcDbLine
 10
3596.294978618705
 20
1872.811473770375
 30
0.0
 11
3627.471893154944
 21
1854.811473770376
 31
0.0
  0
LINE
  5
5A5
330
1F
100
AcDbEntity
  8
Futurebuild_Lines25
  6
Continuous
100
AcDbLine
 10
2143.118794622547
 20
2794.5750626386
 30
0.0
 11
3611.118344742314
 21
1947.025127206701
 31
0.0
  0
LINE
  5
5A6
330
1F
100
AcDbEntity
  8
Futurebuild_Lines25
  6
Continuous
100
AcDbLine
 10
2102.613116913469
 20
2771.189098709555
 30
0.0
 11
2102.613116913469
 21
2735.189098709555
 31
0.0
  0
LINE
  5
5A7
330
1F
100
AcDbEntity
  8
Futurebuild_Lines25
  6
Continuous
100
AcDbLine
 10
2143.118794622547
 20
2794.5750626386
 30
0.0
 11
2102.613116913469
 21
2771.189098709555
 31
0.0
  0
LINE
  5
5A8
330
1F
100
AcDbEntity
  8
Futurebuild_Lines25
  6
Continuous
100
AcDbLine
 10
3627.471893154944
 20
1854.811473770376
 30
0.0
 11
3627.471893154944
 21
1890.811473770376
 31
0.0
  0
LINE
  5
5A9
330
1F
100
AcDbEntity
  8
Futurebuild_Lines25
  6
Continuous
100
AcDbLine
 10
3643.674164238575
 20
1864.165859341993
 30
0.0
 11
3627.471893154944
 21
1854.811473770376
 31
0.0
  0
LINE
  5
5AA
330
1F
100
AcDbEntity
  8
Futurebuild_Lines25
  6
Continuous
100
AcDbLine
 10
3644.574290409888
 20
1874.685547429305
 30
0.0
 11
3643.674164238575
 21
1864.165859341993
 31
0.0
  0
LINE
  5
5AB
330
1F
100
AcDbEntity
  8
Futurebuild_Lines25
  6
Continuous
100
AcDbLine
 10
3650.875173609077
 20
1878.32336404049
 30
0.0
 11
3644.574290409888
 21
1874.685547429305
 31
0.0
  0
LINE
  5
5AC
330
1F
100
AcDbEntity
  8
Futurebuild_Lines25
  6
Continuous
100
AcDbLine
 10
3651.77529978039
 20
1868.843052127802
 30
0.0
 11
3650.875173609077
 21
1878.32336404049
 31
0.0
  0
LINE
  5
5AD
330
1F
100
AcDbEntity
  8
Futurebuild_Lines25
  6
Continuous
100
AcDbLine
 10
3667.977570864021
 20
1878.197437699419
 30
0.0
 11
3651.77529978039
 21
1868.843052127802
 31
0.0
  0
LINE
  5
5AE
330
1F
100
AcDbEntity
  8
Futurebuild_Lines25
  6
Continuous
100
AcDbLine
 10
3667.977570864021
 20
1914.197437699419
 30
0.0
 11
3667.977570864021
 21
1878.197437699419
 31
0.0
  0
LINE
  5
5AF
330
1F
100
AcDbEntity
  8
Futurebuild_Lines25
  6
Continuous
100
AcDbLine
 10
3627.471893154944
 20
1890.811473770376
 30
0.0
 11
3667.977570864021
 21
1914.197437699419
 31
0.0
  0
LINE
  5
5B0
330
1F
100
AcDbEntity
  8
Futurebuild_Lines25
  6
Continuous
100
AcDbLine
 10
2118.8153879971
 20
2616.543484281172
 30
0.0
 11
2472.23918746283
 21
2412.494158521613
 31
0.0
  0
LINE
  5
5B1
330
1F
100
AcDbEntity
  8
Futurebuild_Lines25
  6
Continuous
100
AcDbLine
 10
2620.489275321793
 20
2326.901930388854
 30
0.0
 11
3444.786771896219
 21
1850.993548849275
 31
0.0
  0
LINE
  5
5B2
330
1F
100
AcDbEntity
  8
Futurebuild_Lines25
  6
Continuous
100
AcDbLine
 10
2118.8153879971
 20
2725.834713137936
 30
0.0
 11
2118.8153879971
 21
2616.543484281172
 31
0.0
  0
LINE
  5
5B3
330
1F
100
AcDbEntity
  8
Futurebuild_Lines25
  6
Continuous
100
AcDbLine
 10
3651.77529978039
 20
1868.843052127802
 30
0.0
 11
3651.77529978039
 21
1740.843052127802
 31
0.0
  0
LINE
  5
5B4
330
1F
100
AcDbEntity
  8
Futurebuild_Lines25
  6
Continuous
100
AcDbLine
 10
3650.875173609077
 20
1878.32336404049
 30
0.0
 11
3651.77529978039
 21
1868.843052127802
 31
0.0
  0
LINE
  5
5B5
330
1F
100
AcDbEntity
  8
Futurebuild_Lines25
  6
Continuous
100
AcDbLine
 10
3644.574290409888
 20
1874.685547429305
 30
0.0
 11
3650.875173609077
 21
1878.32336404049
 31
0.0
  0
LINE
  5
5B6
330
1F
100
AcDbEntity
  8
Futurebuild_Lines25
  6
Continuous
100
AcDbLine
 10
3643.674164238575
 20
1864.165859341993
 30
0.0
 11
3644.574290409888
 21
1874.685547429305
 31
0.0
  0
LINE
  5
5B7
330
1F
100
AcDbEntity
  8
Futurebuild_Lines25
  6
Continuous
100
AcDbLine
 10
3643.674164238575
 20
1736.165859341993
 30
0.0
 11
3643.674164238575
 21
1864.165859341993
 31
0.0
  0
LINE
  5
5B8
330
1F
100
AcDbEntity
  8
Futurebuild_Lines25
  6
Continuous
100
AcDbLine
 10
3644.574290409888
 20
1726.685547429305
 30
0.0
 11
3643.674164238575
 21
1736.165859341993
 31
0.0
  0
LINE
  5
5B9
330
1F
100
AcDbEntity
  8
Futurebuild_Lines25
  6
Continuous
100
AcDbLine
 10
3650.875173609077
 20
1730.32336404049
 30
0.0
 11
3644.574290409888
 21
1726.685547429305
 31
0.0
  0
LINE
  5
5BA
330
1F
100
AcDbEntity
  8
Futurebuild_Lines25
  6
Continuous
100
AcDbLine
 10
3651.77529978039
 20
1740.843052127802
 30
0.0
 11
3650.875173609077
 21
1730.32336404049
 31
0.0
  0
LINE
  5
5BB
330
1F
100
AcDbEntity
  8
Futurebuild_Lines25
  6
Continuous
100
AcDbLine
 10
2507.669894004247
 20
2805.048737999998
 30
0.0
 11
2829.91677893374
 21
2618.999412240436
 31
0.0
  0
LINE
  5
5BC
330
1F
100
AcDbEntity
  8
Futurebuild_Lines25
  6
Continuous
100
AcDbLine
 10
3040.491961115073
 20
2497.423774123389
 30
0.0
 11
3802.464363367125
 21
2057.4988025681
 31
0.0
  0
LINE
  5
5BD
330
1F
100
AcDbEntity
  8
Futurebuild_Lines25
  6
Continuous
100
AcDbLine
 10
3859.323589488834
 20
2024.671113060818
 30
0.0
 11
4032.528670245721
 21
1924.671113060818
 31
0.0
  0
LINE
  5
5BE
330
1F
100
AcDbEntity
  8
Futurebuild_Lines25
  6
Continuous
100
AcDbLine
 10
4056.832076871156
 20
1993.411462561486
 30
0.0
 11
4073.034347954799
 21
1984.057076989862
 31
0.0
  0
LINE
  5
5BF
330
1F
100
AcDbEntity
  8
Futurebuild_Lines25
  6
Continuous
100
AcDbLine
 10
2507.669894004247
 20
2841.048737999998
 30
0.0
 11
2861.093693469978
 21
2636.999412240436
 31
0.0
  0
LINE
  5
5C0
330
1F
100
AcDbEntity
  8
Futurebuild_Lines25
  6
Continuous
100
AcDbLine
 10
3025.542499300449
 20
2542.054849926302
 30
0.0
 11
3833.641277903364
 21
2075.4988025681
 31
0.0
  0
LINE
  5
5C1
330
1F
100
AcDbEntity
  8
Futurebuild_Lines25
  6
Continuous
100
AcDbLine
 10
3890.500504025073
 20
2042.671113060818
 30
0.0
 11
4032.528670245721
 21
1960.671113060818
 31
0.0
  0
LINE
  5
5C2
330
1F
100
AcDbEntity
  8
Futurebuild_Lines25
  6
Continuous
100
AcDbLine
 10
2523.872165087877
 20
2850.403123571615
 30
0.0
 11
2507.669894004247
 21
2841.048737999998
 31
0.0
  0
LINE
  5
5C3
330
1F
100
AcDbEntity
  8
Futurebuild_Lines25
  6
Continuous
100
AcDbLine
 10
2507.669894004247
 20
2841.048737999998
 30
0.0
 11
2507.669894004247
 21
2805.048737999998
 31
0.0
  0
LINE
  5
5C4
330
1F
100
AcDbEntity
  8
Futurebuild_Lines25
  6
Continuous
100
AcDbLine
 10
4073.034347954799
 20
1948.057076989862
 30
0.0
 11
4032.528670245721
 21
1924.671113060818
 31
0.0
  0
LINE
  5
5C5
330
1F
100
AcDbEntity
  8
Futurebuild_Lines25
  6
Continuous
100
AcDbLine
 10
4073.034347954799
 20
1984.057076989862
 30
0.0
 11
4073.034347954799
 21
1948.057076989862
 31
0.0
  0
LINE
  5
5C6
330
1F
100
AcDbEntity
  8
Futurebuild_Lines25
  6
Continuous
100
AcDbLine
 10
4056.832076871167
 20
1974.702691418245
 30
0.0
 11
4073.034347954799
 21
1984.057076989862
 31
0.0
  0
LINE
  5
5C7
330
1F
100
AcDbEntity
  8
Futurebuild_Lines25
  6
Continuous
100
AcDbLine
 10
4055.931950699854
 20
1964.183003330933
 30
0.0
 11
4056.832076871167
 21
1974.702691418245
 31
0.0
  0
LINE
  5
5C8
330
1F
100
AcDbEntity
  8
Futurebuild_Lines25
  6
Continuous
100
AcDbLine
 10
4049.631067500666
 20
1960.545186719748
 30
0.0
 11
4055.931950699854
 21
1964.183003330933
 31
0.0
  0
LINE
  5
5C9
330
1F
100
AcDbEntity
  8
Futurebuild_Lines25
  6
Continuous
100
AcDbLine
 10
4048.730941329353
 20
1970.025498632436
 30
0.0
 11
4049.631067500666
 21
1960.545186719748
 31
0.0
  0
LINE
  5
5CA
330
1F
100
AcDbEntity
  8
Futurebuild_Lines25
  6
Continuous
100
AcDbLine
 10
4032.528670245721
 20
1960.671113060818
 30
0.0
 11
4048.730941329353
 21
1970.025498632436
 31
0.0
  0
LINE
  5
5CB
330
1F
100
AcDbEntity
  8
Futurebuild_Lines25
  6
Continuous
100
AcDbLine
 10
4032.528670245721
 20
1924.671113060818
 30
0.0
 11
4032.528670245721
 21
1960.671113060818
 31
0.0
  0
LINE
  5
5CC
330
1F
100
AcDbEntity
  8
Futurebuild_Lines25
  6
Continuous
100
AcDbLine
 10
2507.669894004247
 20
3005.048737999998
 30
0.0
 11
3975.669444124012
 21
2157.4988025681
 31
0.0
  0
LINE
  5
5CD
330
1F
100
AcDbEntity
  8
Futurebuild_Lines25
  6
Continuous
100
AcDbLine
 10
2507.669894004247
 20
2969.048737999998
 30
0.0
 11
2971.944945154387
 21
2700.999412240436
 31
0.0
  0
LINE
  5
5CE
330
1F
100
AcDbEntity
  8
Futurebuild_Lines25
  6
Continuous
100
AcDbLine
 10
3040.491961115073
 20
2661.423774123389
 30
0.0
 11
3944.492529587773
 21
2139.4988025681
 31
0.0
  0
LINE
  5
5CF
330
1F
100
AcDbEntity
  8
Futurebuild_Lines25
  6
Continuous
100
AcDbLine
 10
4001.351755709482
 20
2106.671113060818
 30
0.0
 11
4032.528670245721
 21
2088.671113060818
 31
0.0
  0
LINE
  5
5D0
330
1F
100
AcDbEntity
  8
Futurebuild_Lines25
  6
Continuous
100
AcDbLine
 10
2548.175571713323
 20
3028.434701929042
 30
0.0
 11
4016.17512183309
 21
2180.884766497144
 31
0.0
  0
LINE
  5
5D1
330
1F
100
AcDbEntity
  8
Futurebuild_Lines25
  6
Continuous
100
AcDbLine
 10
2507.669894004247
 20
3005.048737999998
 30
0.0
 11
2507.669894004247
 21
2969.048737999998
 31
0.0
  0
LINE
  5
5D2
330
1F
100
AcDbEntity
  8
Futurebuild_Lines25
  6
Continuous
100
AcDbLine
 10
2548.175571713323
 20
3028.434701929042
 30
0.0
 11
2507.669894004247
 21
3005.048737999998
 31
0.0
  0
LINE
  5
5D3
330
1F
100
AcDbEntity
  8
Futurebuild_Lines25
  6
Continuous
100
AcDbLine
 10
4032.528670245721
 20
2088.671113060818
 30
0.0
 11
4032.528670245721
 21
2124.671113060818
 31
0.0
  0
LINE
  5
5D4
330
1F
100
AcDbEntity
  8
Futurebuild_Lines25
  6
Continuous
100
AcDbLine
 10
4048.730941329353
 20
2098.025498632436
 30
0.0
 11
4032.528670245721
 21
2088.671113060818
 31
0.0
  0
LINE
  5
5D5
330
1F
100
AcDbEntity
  8
Futurebuild_Lines25
  6
Continuous
100
AcDbLine
 10
4049.631067500666
 20
2108.545186719748
 30
0.0
 11
4048.730941329353
 21
2098.025498632436
 31
0.0
  0
LINE
  5
5D6
330
1F
100
AcDbEntity
  8
Futurebuild_Lines25
  6
Continuous
100
AcDbLine
 10
4055.931950699854
 20
2112.183003330933
 30
0.0
 11
4049.631067500666
 21
2108.545186719748
 31
0.0
  0
LINE
  5
5D7
330
1F
100
AcDbEntity
  8
Futurebuild_Lines25
  6
Continuous
100
AcDbLine
 10
4056.832076871167
 20
2102.702691418245
 30
0.0
 11
4055.931950699854
 21
2112.183003330933
 31
0.0
  0
LINE
  5
5D8
330
1F
100
AcDbEntity
  8
Futurebuild_Lines25
  6
Continuous
100
AcDbLine
 10
4073.034347954799
 20
2112.057076989862
 30
0.0
 11
4056.832076871167
 21
2102.702691418245
 31
0.0
  0
LINE
  5
5D9
330
1F
100
AcDbEntity
  8
Futurebuild_Lines25
  6
Continuous
100
AcDbLine
 10
4073.034347954799
 20
2148.057076989862
 30
0.0
 11
4073.034347954799
 21
2112.057076989862
 31
0.0
  0
LINE
  5
5DA
330
1F
100
AcDbEntity
  8
Futurebuild_Lines25
  6
Continuous
100
AcDbLine
 10
4032.528670245721
 20
2124.671113060818
 30
0.0
 11
4073.034347954799
 21
2148.057076989862
 31
0.0
  0
LINE
  5
5DB
330
1F
100
AcDbEntity
  8
Futurebuild_Lines25
  6
Continuous
100
AcDbLine
 10
2523.872165087877
 20
2850.403123571615
 30
0.0
 11
2877.29596455361
 21
2646.353797812054
 31
0.0
  0
LINE
  5
5DC
330
1F
100
AcDbEntity
  8
Futurebuild_Lines25
  6
Continuous
100
AcDbLine
 10
3025.546052412574
 20
2560.761569679295
 30
0.0
 11
3849.843548986996
 21
2084.853188139718
 31
0.0
  0
LINE
  5
5DD
330
1F
100
AcDbEntity
  8
Futurebuild_Lines25
  6
Continuous
100
AcDbLine
 10
3906.702775108703
 20
2052.025498632436
 30
0.0
 11
4048.730941329353
 21
1970.025498632436
 31
0.0
  0
LINE
  5
5DE
330
1F
100
AcDbEntity
  8
Futurebuild_Lines25
  6
Continuous
100
AcDbLine
 10
2523.872165087877
 20
2959.694352428383
 30
0.0
 11
2523.872165087877
 21
2850.403123571615
 31
0.0
  0
LINE
  5
5DF
330
1F
100
AcDbEntity
  8
Futurebuild_Lines25
  6
Continuous
100
AcDbLine
 10
4056.832076871167
 20
2102.702691418245
 30
0.0
 11
4056.832076871167
 21
1974.702691418245
 31
0.0
  0
LINE
  5
5E0
330
1F
100
AcDbEntity
  8
Futurebuild_Lines25
  6
Continuous
100
AcDbLine
 10
4055.931950699854
 20
2112.183003330933
 30
0.0
 11
4056.832076871167
 21
2102.702691418245
 31
0.0
  0
LINE
  5
5E1
330
1F
100
AcDbEntity
  8
Futurebuild_Lines25
  6
Continuous
100
AcDbLine
 10
4049.631067500666
 20
2108.545186719748
 30
0.0
 11
4055.931950699854
 21
2112.183003330933
 31
0.0
  0
LINE
  5
5E2
330
1F
100
AcDbEntity
  8
Futurebuild_Lines25
  6
Continuous
100
AcDbLine
 10
4048.730941329353
 20
2098.025498632436
 30
0.0
 11
4049.631067500666
 21
2108.545186719748
 31
0.0
  0
LINE
  5
5E3
330
1F
100
AcDbEntity
  8
Futurebuild_Lines25
  6
Continuous
100
AcDbLine
 10
4048.730941329353
 20
1970.025498632436
 30
0.0
 11
4048.730941329353
 21
2098.025498632436
 31
0.0
  0
LINE
  5
5E4
330
1F
100
AcDbEntity
  8
Futurebuild_Lines25
  6
Continuous
100
AcDbLine
 10
4049.631067500666
 20
1960.545186719748
 30
0.0
 11
4048.730941329353
 21
1970.025498632436
 31
0.0
  0
LINE
  5
5E5
330
1F
100
AcDbEntity
  8
Futurebuild_Lines25
  6
Continuous
100
AcDbLine
 10
4055.931950699854
 20
1964.183003330933
 30
0.0
 11
4049.631067500666
 21
1960.545186719748
 31
0.0
  0
LINE
  5
5E6
330
1F
100
AcDbEntity
  8
Futurebuild_Lines25
  6
Continuous
100
AcDbLine
 10
4056.832076871167
 20
1974.702691418245
 30
0.0
 11
4055.931950699854
 21
1964.183003330933
 31
0.0
  0
LINE
  5
5E7
330
1F
100
AcDbEntity
  8
Futurebuild_Lines25
  6
Continuous
100
AcDbLine
 10
823.8656101484816
 20
1217.649850919546
 30
0.0
 11
1015.211628773294
 21
1328.123526280944
 31
0.0
  0
LINE
  5
5E8
330
1F
100
AcDbEntity
  8
Futurebuild_Lines25
  6
Continuous
100
AcDbLine
 10
792.6886956122416
 20
1235.649850919546
 30
0.0
 11
1015.211628773294
 21
1364.123526280944
 31
0.0
  0
LINE
  5
5E9
330
1F
100
AcDbEntity
  8
Futurebuild_Lines25
  6
Continuous
100
AcDbLine
 10
1015.211628773294
 20
1364.123526280944
 30
0.0
 11
1000.26216695867
 21
1372.754602083857
 31
0.0
  0
LINE
  5
5EA
330
1F
100
AcDbEntity
  8
Futurebuild_Lines25
  6
Continuous
100
AcDbLine
 10
1015.211628773294
 20
1328.123526280944
 30
0.0
 11
1015.211628773294
 21
1364.123526280944
 31
0.0
  0
LINE
  5
5EB
330
1F
100
AcDbEntity
  8
Futurebuild_Lines25
  6
Continuous
100
AcDbLine
 10
650.6605293915948
 20
1317.649850919546
 30
0.0
 11
1015.211628773294
 21
1528.123526280944
 31
0.0
  0
LINE
  5
5EC
330
1F
100
AcDbEntity
  8
Futurebuild_Lines25
  6
Continuous
100
AcDbLine
 10
681.8374439278339
 20
1299.649850919546
 30
0.0
 11
1015.211628773294
 21
1492.123526280944
 31
0.0
  0
LINE
  5
5ED
330
1F
100
AcDbEntity
  8
Futurebuild_Lines25
  6
Continuous
100
AcDbLine
 10
613.2868748550369
 20
1339.227540426828
 30
0.0
 11
977.8379742367358
 21
1549.701215788226
 31
0.0
  0
LINE
  5
5EE
330
1F
100
AcDbEntity
  8
Futurebuild_Lines25
  6
Continuous
100
AcDbLine
 10
613.2868748550369
 20
1339.227540426828
 30
0.0
 11
650.6605293915948
 21
1317.649850919546
 31
0.0
  0
LINE
  5
5EF
330
1F
100
AcDbEntity
  8
Futurebuild_Lines25
  6
Continuous
100
AcDbLine
 10
1015.211628773294
 20
1492.123526280944
 30
0.0
 11
1015.211628773294
 21
1528.123526280944
 31
0.0
  0
LINE
  5
5F0
330
1F
100
AcDbEntity
  8
Futurebuild_Lines25
  6
Continuous
100
AcDbLine
 10
1015.211628773294
 20
1528.123526280944
 30
0.0
 11
977.8379742367358
 21
1549.701215788226
 31
0.0
  0
LINE
  5
5F1
330
1F
100
AcDbEntity
  8
Futurebuild_Lines25
  6
Continuous
100
AcDbLine
 10
777.7392337976181
 20
1244.280926722458
 30
0.0
 11
1000.26216695867
 21
1372.754602083857
 31
0.0
  0
LINE
  5
5F2
330
1F
100
AcDbEntity
  8
Futurebuild_Lines25
  6
Continuous
100
AcDbLine
 10
1000.26216695867
 20
1372.754602083857
 30
0.0
 11
1000.26216695867
 21
1483.492450478031
 31
0.0
  0
LINE
  5
5F3
330
1F
100
AcDbEntity
  8
Futurebuild_Lines25
  6
Continuous
100
AcDbLine
 10
1228.922387239261
 20
1451.509490209989
 30
0.0
 11
1420.268405864072
 21
1561.983165571387
 31
0.0
  0
LINE
  5
5F4
330
1F
100
AcDbEntity
  8
Futurebuild_Lines25
  6
Continuous
100
AcDbLine
 10
1197.745472703021
 20
1469.509490209989
 30
0.0
 11
1420.268405864072
 21
1597.983165571387
 31
0.0
  0
LINE
  5
5F5
330
1F
100
AcDbEntity
  8
Futurebuild_Lines25
  6
Continuous
100
AcDbLine
 10
1420.268405864072
 20
1597.983165571387
 30
0.0
 11
1405.318944049449
 21
1606.6142413743
 31
0.0
  0
LINE
  5
5F6
330
1F
100
AcDbEntity
  8
Futurebuild_Lines25
  6
Continuous
100
AcDbLine
 10
1420.268405864072
 20
1561.983165571387
 30
0.0
 11
1420.268405864072
 21
1597.983165571387
 31
0.0
  0
LINE
  5
5F7
330
1F
100
AcDbEntity
  8
Futurebuild_Lines25
  6
Continuous
100
AcDbLine
 10
1055.717306482372
 20
1551.509490209989
 30
0.0
 11
1420.268405864072
 21
1761.983165571387
 31
0.0
  0
LINE
  5
5F8
330
1F
100
AcDbEntity
  8
Futurebuild_Lines25
  6
Continuous
100
AcDbLine
 10
1086.894221018612
 20
1533.509490209989
 30
0.0
 11
1420.268405864072
 21
1725.983165571387
 31
0.0
  0
LINE
  5
5F9
330
1F
100
AcDbEntity
  8
Futurebuild_Lines25
  6
Continuous
100
AcDbLine
 10
1018.343651945814
 20
1573.087179717271
 30
0.0
 11
1382.894751327514
 21
1783.560855078669
 31
0.0
  0
LINE
  5
5FA
330
1F
100
AcDbEntity
  8
Futurebuild_Lines25
  6
Continuous
100
AcDbLine
 10
1018.343651945814
 20
1573.087179717271
 30
0.0
 11
1055.717306482372
 21
1551.509490209989
 31
0.0
  0
LINE
  5
5FB
330
1F
100
AcDbEntity
  8
Futurebuild_Lines25
  6
Continuous
100
AcDbLine
 10
1420.268405864072
 20
1725.983165571387
 30
0.0
 11
1420.268405864072
 21
1761.983165571387
 31
0.0
  0
LINE
  5
5FC
330
1F
100
AcDbEntity
  8
Futurebuild_Lines25
  6
Continuous
100
AcDbLine
 10
1420.268405864072
 20
1761.983165571387
 30
0.0
 11
1382.894751327514
 21
1783.560855078669
 31
0.0
  0
LINE
  5
5FD
330
1F
100
AcDbEntity
  8
Futurebuild_Lines25
  6
Continuous
100
AcDbLine
 10
1182.796010888397
 20
1478.140566012902
 30
0.0
 11
1405.318944049449
 21
1606.6142413743
 31
0.0
  0
LINE
  5
5FE
330
1F
100
AcDbEntity
  8
Futurebuild_Lines25
  6
Continuous
100
AcDbLine
 10
1405.318944049449
 20
1606.6142413743
 30
0.0
 11
1405.318944049449
 21
1717.352089768473
 31
0.0
  0
LINE
  5
5FF
330
1F
100
AcDbEntity
  8
Futurebuild_Lines25
  6
Continuous
100
AcDbLine
 10
1633.979164330037
 20
1685.369129500431
 30
0.0
 11
1825.325182954849
 21
1795.842804861829
 31
0.0
  0
LINE
  5
600
330
1F
100
AcDbEntity
  8
Futurebuild_Lines25
  6
Continuous
100
AcDbLine
 10
1602.802249793797
 20
1703.369129500431
 30
0.0
 11
1825.325182954849
 21
1831.842804861829
 31
0.0
  0
LINE
  5
601
330
1F
100
AcDbEntity
  8
Futurebuild_Lines25
  6
Continuous
100
AcDbLine
 10
1825.325182954849
 20
1831.842804861829
 30
0.0
 11
1810.375721140225
 21
1840.473880664742
 31
0.0
  0
LINE
  5
602
330
1F
100
AcDbEntity
  8
Futurebuild_Lines25
  6
Continuous
100
AcDbLine
 10
1825.325182954849
 20
1795.842804861829
 30
0.0
 11
1825.325182954849
 21
1831.842804861829
 31
0.0
  0
LINE
  5
603
330
1F
100
AcDbEntity
  8
Futurebuild_Lines25
  6
Continuous
100
AcDbLine
 10
1460.774083573149
 20
1785.369129500431
 30
0.0
 11
1825.325182954849
 21
1995.842804861829
 31
0.0
  0
LINE
  5
604
330
1F
100
AcDbEntity
  8
Futurebuild_Lines25
  6
Continuous
100
AcDbLine
 10
1491.950998109388
 20
1767.369129500431
 30
0.0
 11
1825.325182954849
 21
1959.842804861829
 31
0.0
  0
LINE
  5
605
330
1F
100
AcDbEntity
  8
Futurebuild_Lines25
  6
Continuous
100
AcDbLine
 10
1423.40042903659
 20
1806.946819007713
 30
0.0
 11
1787.951528418291
 21
2017.420494369111
 31
0.0
  0
LINE
  5
606
330
1F
100
AcDbEntity
  8
Futurebuild_Lines25
  6
Continuous
100
AcDbLine
 10
1423.40042903659
 20
1806.946819007713
 30
0.0
 11
1460.774083573149
 21
1785.369129500431
 31
0.0
  0
LINE
  5
607
330
1F
100
AcDbEntity
  8
Futurebuild_Lines25
  6
Continuous
100
AcDbLine
 10
1825.325182954849
 20
1959.842804861829
 30
0.0
 11
1825.325182954849
 21
1995.842804861829
 31
0.0
  0
LINE
  5
608
330
1F
100
AcDbEntity
  8
Futurebuild_Lines25
  6
Continuous
100
AcDbLine
 10
1825.325182954849
 20
1995.842804861829
 30
0.0
 11
1787.951528418291
 21
2017.420494369111
 31
0.0
  0
LINE
  5
609
330
1F
100
AcDbEntity
  8
Futurebuild_Lines25
  6
Continuous
100
AcDbLine
 10
1587.852787979173
 20
1712.000205303343
 30
0.0
 11
1810.375721140225
 21
1840.473880664742
 31
0.0
  0
LINE
  5
60A
330
1F
100
AcDbEntity
  8
Futurebuild_Lines25
  6
Continuous
100
AcDbLine
 10
1810.375721140225
 20
1840.473880664742
 30
0.0
 11
1810.375721140225
 21
1951.211729058915
 31
0.0
  0
LINE
  5
60B
330
1F
100
AcDbEntity
  8
Futurebuild_Lines25
  6
Continuous
100
AcDbLine
 10
2039.035941420814
 20
1919.228768790874
 30
0.0
 11
2230.381960045627
 21
2029.702444152272
 31
0.0
  0
LINE
  5
60C
330
1F
100
AcDbEntity
  8
Futurebuild_Lines25
  6
Continuous
100
AcDbLine
 10
2007.859026884575
 20
1937.228768790874
 30
0.0
 11
2230.381960045627
 21
2065.702444152272
 31
0.0
  0
LINE
  5
60D
330
1F
100
AcDbEntity
  8
Futurebuild_Lines25
  6
Continuous
100
AcDbLine
 10
2230.381960045627
 20
2065.702444152272
 30
0.0
 11
2215.432498231004
 21
2074.333519955185
 31
0.0
  0
LINE
  5
60E
330
1F
100
AcDbEntity
  8
Futurebuild_Lines25
  6
Continuous
100
AcDbLine
 10
2230.381960045627
 20
2029.702444152272
 30
0.0
 11
2230.381960045627
 21
2065.702444152272
 31
0.0
  0
LINE
  5
60F
330
1F
100
AcDbEntity
  8
Futurebuild_Lines25
  6
Continuous
100
AcDbLine
 10
1865.830860663927
 20
2019.228768790874
 30
0.0
 11
2230.381960045627
 21
2229.702444152272
 31
0.0
  0
LINE
  5
610
330
1F
100
AcDbEntity
  8
Futurebuild_Lines25
  6
Continuous
100
AcDbLine
 10
1897.007775200167
 20
2001.228768790874
 30
0.0
 11
2230.381960045627
 21
2193.702444152272
 31
0.0
  0
LINE
  5
611
330
1F
100
AcDbEntity
  8
Futurebuild_Lines25
  6
Continuous
100
AcDbLine
 10
1828.457206127369
 20
2040.806458298156
 30
0.0
 11
2193.008305509069
 21
2251.280133659554
 31
0.0
  0
LINE
  5
612
330
1F
100
AcDbEntity
  8
Futurebuild_Lines25
  6
Continuous
100
AcDbLine
 10
1828.457206127369
 20
2040.806458298156
 30
0.0
 11
1865.830860663927
 21
2019.228768790874
 31
0.0
  0
LINE
  5
613
330
1F
100
AcDbEntity
  8
Futurebuild_Lines25
  6
Continuous
100
AcDbLine
 10
2230.381960045627
 20
2193.702444152272
 30
0.0
 11
2230.381960045627
 21
2229.702444152272
 31
0.0
  0
LINE
  5
614
330
1F
100
AcDbEntity
  8
Futurebuild_Lines25
  6
Continuous
100
AcDbLine
 10
2230.381960045627
 20
2229.702444152272
 30
0.0
 11
2193.008305509069
 21
2251.280133659554
 31
0.0
  0
LINE
  5
615
330
1F
100
AcDbEntity
  8
Futurebuild_Lines25
  6
Continuous
100
AcDbLine
 10
1992.909565069952
 20
1945.859844593786
 30
0.0
 11
2215.432498231004
 21
2074.333519955185
 31
0.0
  0
LINE
  5
616
330
1F
100
AcDbEntity
  8
Futurebuild_Lines25
  6
Continuous
100
AcDbLine
 10
2215.432498231004
 20
2074.333519955185
 30
0.0
 11
2215.432498231004
 21
2185.071368349359
 31
0.0
  0
LINE
  5
617
330
1F
100
AcDbEntity
  8
Futurebuild_Lines25
  6
Continuous
100
AcDbLine
 10
2444.092718511594
 20
2153.088408081318
 30
0.0
 11
2635.438737136405
 21
2263.562083442715
 31
0.0
  0
LINE
  5
618
330
1F
100
AcDbEntity
  8
Futurebuild_Lines25
  6
Continuous
100
AcDbLine
 10
2412.915803975355
 20
2171.088408081318
 30
0.0
 11
2635.438737136405
 21
2299.562083442715
 31
0.0
  0
LINE
  5
619
330
1F
100
AcDbEntity
  8
Futurebuild_Lines25
  6
Continuous
100
AcDbLine
 10
2635.438737136405
 20
2299.562083442715
 30
0.0
 11
2620.489275321781
 21
2308.193159245628
 31
0.0
  0
LINE
  5
61A
330
1F
100
AcDbEntity
  8
Futurebuild_Lines25
  6
Continuous
100
AcDbLine
 10
2635.438737136405
 20
2263.562083442715
 30
0.0
 11
2635.438737136405
 21
2299.562083442715
 31
0.0
  0
LINE
  5
61B
330
1F
100
AcDbEntity
  8
Futurebuild_Lines25
  6
Continuous
100
AcDbLine
 10
2270.887637754705
 20
2253.088408081317
 30
0.0
 11
2635.438737136405
 21
2463.562083442715
 31
0.0
  0
LINE
  5
61C
330
1F
100
AcDbEntity
  8
Futurebuild_Lines25
  6
Continuous
100
AcDbLine
 10
2302.064552290946
 20
2235.088408081318
 30
0.0
 11
2635.438737136405
 21
2427.562083442715
 31
0.0
  0
LINE
  5
61D
330
1F
100
AcDbEntity
  8
Futurebuild_Lines25
  6
Continuous
100
AcDbLine
 10
2233.513983218147
 20
2274.666097588599
 30
0.0
 11
2598.065082599847
 21
2485.139772949997
 31
0.0
  0
LINE
  5
61E
330
1F
100
AcDbEntity
  8
Futurebuild_Lines25
  6
Continuous
100
AcDbLine
 10
2233.513983218147
 20
2274.666097588599
 30
0.0
 11
2270.887637754705
 21
2253.088408081317
 31
0.0
  0
LINE
  5
61F
330
1F
100
AcDbEntity
  8
Futurebuild_Lines25
  6
Continuous
100
AcDbLine
 10
2635.438737136405
 20
2427.562083442715
 30
0.0
 11
2635.438737136405
 21
2463.562083442715
 31
0.0
  0
LINE
  5
620
330
1F
100
AcDbEntity
  8
Futurebuild_Lines25
  6
Continuous
100
AcDbLine
 10
2635.438737136405
 20
2463.562083442715
 30
0.0
 11
2598.065082599847
 21
2485.139772949997
 31
0.0
  0
LINE
  5
621
330
1F
100
AcDbEntity
  8
Futurebuild_Lines25
  6
Continuous
100
AcDbLine
 10
2397.966342160731
 20
2179.71948388423
 30
0.0
 11
2620.489275321781
 21
2308.193159245628
 31
0.0
  0
LINE
  5
622
330
1F
100
AcDbEntity
  8
Futurebuild_Lines25
  6
Continuous
100
AcDbLine
 10
2620.489275321781
 20
2308.193159245628
 30
0.0
 11
2620.489275321781
 21
2418.931007639804
 31
0.0
  0
LINE
  5
623
330
1F
100
AcDbEntity
  8
Futurebuild_Lines25
  6
Continuous
100
AcDbLine
 10
2849.149495602368
 20
2386.948047371759
 30
0.0
 11
3040.495514227182
 21
2497.421722733157
 31
0.0
  0
LINE
  5
624
330
1F
100
AcDbEntity
  8
Futurebuild_Lines25
  6
Continuous
100
AcDbLine
 10
2817.972581066129
 20
2404.948047371759
 30
0.0
 11
3040.495514227182
 21
2533.421722733157
 31
0.0
  0
LINE
  5
625
330
1F
100
AcDbEntity
  8
Futurebuild_Lines25
  6
Continuous
100
AcDbLine
 10
3040.495514227182
 20
2533.421722733157
 30
0.0
 11
3025.546052412558
 21
2542.05279853607
 31
0.0
  0
LINE
  5
626
330
1F
100
AcDbEntity
  8
Futurebuild_Lines25
  6
Continuous
100
AcDbLine
 10
3040.495514227182
 20
2497.421722733157
 30
0.0
 11
3040.495514227182
 21
2533.421722733157
 31
0.0
  0
LINE
  5
627
330
1F
100
AcDbEntity
  8
Futurebuild_Lines25
  6
Continuous
100
AcDbLine
 10
2675.944414845482
 20
2486.948047371759
 30
0.0
 11
3040.495514227182
 21
2697.421722733158
 31
0.0
  0
LINE
  5
628
330
1F
100
AcDbEntity
  8
Futurebuild_Lines25
  6
Continuous
100
AcDbLine
 10
2707.121329381722
 20
2468.948047371759
 30
0.0
 11
3040.495514227182
 21
2661.421722733157
 31
0.0
  0
LINE
  5
629
330
1F
100
AcDbEntity
  8
Futurebuild_Lines25
  6
Continuous
100
AcDbLine
 10
2638.570760308924
 20
2508.525736879041
 30
0.0
 11
3003.121859690623
 21
2718.999412240439
 31
0.0
  0
LINE
  5
62A
330
1F
100
AcDbEntity
  8
Futurebuild_Lines25
  6
Continuous
100
AcDbLine
 10
2638.570760308924
 20
2508.525736879041
 30
0.0
 11
2675.944414845482
 21
2486.948047371759
 31
0.0
  0
LINE
  5
62B
330
1F
100
AcDbEntity
  8
Futurebuild_Lines25
  6
Continuous
100
AcDbLine
 10
3040.495514227182
 20
2661.421722733157
 30
0.0
 11
3040.495514227182
 21
2697.421722733158
 31
0.0
  0
LINE
  5
62C
330
1F
100
AcDbEntity
  8
Futurebuild_Lines25
  6
Continuous
100
AcDbLine
 10
3040.495514227182
 20
2697.421722733158
 30
0.0
 11
3003.121859690623
 21
2718.999412240439
 31
0.0
  0
LINE
  5
62D
330
1F
100
AcDbEntity
  8
Futurebuild_Lines25
  6
Continuous
100
AcDbLine
 10
2803.023119251507
 20
2413.579123174672
 30
0.0
 11
3025.546052412558
 21
2542.05279853607
 31
0.0
  0
LINE
  5
62E
330
1F
100
AcDbEntity
  8
Futurebuild_Lines25
  6
Continuous
100
AcDbLine
 10
3025.546052412558
 20
2542.05279853607
 30
0.0
 11
3025.546052412558
 21
2652.79064693025
 31
0.0
  0
LINE
  5
62F
330
1F
100
AcDbEntity
  8
Futurebuild_Lines18
  6
Continuous
100
AcDbLine
 10
1602.188007701058
 20
521.5132773181629
 30
0.0
 11
1446.286959865082
 21
431.5037653831183
 31
0.0
  0
LINE
  5
630
330
1F
100
AcDbEntity
  8
Futurebuild_Lines18
  6
Continuous
100
AcDbLine
 10
3590.101791730493
 20
1712.391214667889
 30
0.0
 11
3512.568898649233
 21
1667.627577976374
 31
0.0
  0
LINE
  5
631
330
1F
100
AcDbEntity
  8
Futurebuild_Lines18
  6
Continuous
100
AcDbLine
 10
3498.062807870383
 20
1589.384039925062
 30
0.0
 11
3498.062807870383
 21
1832.384039925063
 31
0.0
  0
LINE
  5
632
330
1F
100
AcDbEntity
  8
Futurebuild_Lines18
  6
Continuous
100
AcDbLine
 10
4200.75479050171
 20
2021.79650887534
 30
0.0
 11
3498.062807870383
 21
1616.097103545752
 31
0.0
  0
LINE
  5
633
330
1F
100
AcDbEntity
  8
Futurebuild_Lines18
  6
Continuous
100
AcDbLine
 10
1571.356602922311
 20
525.2904469769414
 30
0.0
 11
1571.356602922312
 21
703.7127574696597
 31
0.0
  0
LINE
  5
634
330
1F
100
AcDbEntity
  8
Futurebuild_Lines18
  6
Continuous
100
AcDbLine
 10
1571.356602922311
 20
525.2904469769414
 30
0.0
 11
1590.04343019059
 21
514.5016022233003
 31
0.0
  0
LINE
  5
635
330
1F
100
AcDbEntity
  8
Futurebuild_Lines18
  6
Continuous
100
AcDbLine
 10
1571.356602922311
 20
546.8681364842241
 30
0.0
 11
1408.913305328524
 21
453.0814548904004
 31
0.0
  0
LINE
  5
636
330
1F
100
AcDbEntity
  8
Futurebuild_Lines18
  6
Continuous
100
AcDbLine
 10
1446.286959865082
 20
631.5037653831183
 30
0.0
 11
1602.188007701058
 21
721.513277318163
 31
0.0
  0
LINE
  5
637
330
1F
100
AcDbEntity
  8
Futurebuild_Lines18
  6
Continuous
100
AcDbLine
 10
1590.04343019059
 20
514.5016022233003
 30
0.0
 11
1590.04343019059
 21
714.5016022233004
 31
0.0
  0
LINE
  5
638
330
1F
100
AcDbEntity
  8
Futurebuild_Lines18
  6
Continuous
100
AcDbLine
 10
1602.188007701058
 20
721.5132773181632
 30
0.0
 11
1602.188007701058
 21
521.5132773181631
 31
0.0
  0
LINE
  5
639
330
1F
100
AcDbEntity
  8
Futurebuild_Lines18
  6
Continuous
100
AcDbLine
 10
1608.001687273748
 20
498.156747826617
 30
0.0
 11
3498.062807870383
 21
1589.384039925062
 31
0.0
  0
LINE
  5
63A
330
1F
100
AcDbEntity
  8
Futurebuild_Lines18
  6
Continuous
100
AcDbLine
 10
3498.062807870383
 20
1832.384039925063
 30
0.0
 11
1608.001687273748
 21
741.1567478266169
 31
0.0
  0
LINE
  5
63B
330
1F
100
AcDbEntity
  8
Futurebuild_Lines18
  6
Continuous
100
AcDbLine
 10
1608.001687273748
 20
741.1567478266169
 30
0.0
 11
1608.001687273748
 21
498.156747826617
 31
0.0
  0
LINE
  5
63C
330
1F
100
AcDbEntity
  8
Futurebuild_Lines18
  6
Continuous
100
AcDbLine
 10
3492.2491282904
 20
1835.740569412397
 30
0.0
 11
1602.188007693762
 21
744.5132773139512
 31
0.0
  0
LINE
  5
63D
330
1F
100
AcDbEntity
  8
Futurebuild_Lines18
  6
Continuous
100
AcDbLine
 10
1602.188007693762
 20
744.5132773139512
 30
0.0
 11
1602.188007693762
 21
501.5132773139512
 31
0.0
  0
LINE
  5
63E
330
1F
100
AcDbEntity
  8
Futurebuild_Lines18
  6
Continuous
100
AcDbLine
 10
1608.001687273748
 20
498.156747826617
 30
0.0
 11
1602.188007693762
 21
501.5132773139512
 31
0.0
  0
LINE
  5
63F
330
1F
100
AcDbEntity
  8
Futurebuild_Lines18
  6
Continuous
100
AcDbLine
 10
3498.062807870383
 20
1832.384039925063
 30
0.0
 11
3492.2491282904
 21
1835.740569412397
 31
0.0
  0
LINE
  5
640
330
1F
100
AcDbEntity
  8
Futurebuild_Lines18
  6
Continuous
100
AcDbLine
 10
1608.001687273748
 20
741.1567478266169
 30
0.0
 11
1602.188007693762
 21
744.5132773139512
 31
0.0
  0
LINE
  5
641
330
1F
100
AcDbEntity
  8
Futurebuild_Lines18
  6
Continuous
100
AcDbLine
 10
3778.899035180958
 20
1427.243168463833
 30
0.0
 11
4620.252332570379
 21
1912.998719119537
 31
0.0
  0
LINE
  5
642
330
1F
100
AcDbEntity
  8
Futurebuild_Lines18
  6
Continuous
100
AcDbLine
 10
4620.252332570379
 20
2155.998719119538
 30
0.0
 11
3778.899035180958
 21
1670.243168463833
 31
0.0
  0
LINE
  5
643
330
1F
100
AcDbEntity
  8
Futurebuild_Lines18
  6
Continuous
100
AcDbLine
 10
3778.899035180958
 20
1670.243168463833
 30
0.0
 11
3778.899035180958
 21
1427.243168463833
 31
0.0
  0
LINE
  5
644
330
1F
100
AcDbEntity
  8
Futurebuild_Lines18
  6
Continuous
100
AcDbLine
 10
4614.438652990394
 20
2159.355248606872
 30
0.0
 11
3773.085355600973
 21
1673.599697951167
 31
0.0
  0
LINE
  5
645
330
1F
100
AcDbEntity
  8
Futurebuild_Lines18
  6
Continuous
100
AcDbLine
 10
3773.085355600973
 20
1673.599697951167
 30
0.0
 11
3773.085355600973
 21
1430.599697951167
 31
0.0
  0
LINE
  5
646
330
1F
100
AcDbEntity
  8
Futurebuild_Lines18
  6
Continuous
100
AcDbLine
 10
3778.899035180958
 20
1427.243168463833
 30
0.0
 11
3773.085355600973
 21
1430.599697951167
 31
0.0
  0
LINE
  5
647
330
1F
100
AcDbEntity
  8
Futurebuild_Lines18
  6
Continuous
100
AcDbLine
 10
4620.252332570379
 20
2155.998719119538
 30
0.0
 11
4614.438652990394
 21
2159.355248606872
 31
0.0
  0
LINE
  5
648
330
1F
100
AcDbEntity
  8
Futurebuild_Lines18
  6
Continuous
100
AcDbLine
 10
3778.899035180958
 20
1670.243168463833
 30
0.0
 11
3773.085355600973
 21
1673.599697951167
 31
0.0
  0
LINE
  5
649
330
1F
100
AcDbEntity
  8
Futurebuild_Lines18
  6
Continuous
100
AcDbLine
 10
3498.062807870381
 20
1816.09710354575
 30
0.0
 11
4200.75479050171
 21
2221.79650887534
 31
0.0
  0
LINE
  5
64A
330
1F
100
AcDbEntity
  8
Futurebuild_Lines18
  6
Continuous
100
AcDbLine
 10
4200.75479050171
 20
2221.79650887534
 30
0.0
 11
4200.75479050171
 21
2244.29650887534
 31
0.0
  0
LINE
  5
64B
330
1F
100
AcDbEntity
  8
Futurebuild_Lines18
  6
Continuous
100
AcDbLine
 10
4200.75479050171
 20
2244.29650887534
 30
0.0
 11
3492.682136952997
 21
1835.490571743177
 31
0.0
  0
LINE
  5
64C
330
1F
100
AcDbEntity
  8
Futurebuild_Lines18
  6
Continuous
100
AcDbLine
 10
1602.19156080587
 20
744.0153287041836
 30
0.0
 11
1446.286959865082
 21
654.0037653831184
 31
0.0
  0
LINE
  5
64D
330
1F
100
AcDbEntity
  8
Futurebuild_Lines18
  6
Continuous
100
AcDbLine
 10
1446.286959865082
 20
654.0037653831184
 30
0.0
 11
1446.286959865082
 21
631.5037653831183
 31
0.0
  0
LINE
  5
64E
330
1F
100
AcDbEntity
  8
Futurebuild_Lines18
  6
Continuous
100
AcDbLine
 10
4163.381135965154
 20
2265.874198382622
 30
0.0
 11
1408.913305328524
 21
675.5814548904006
 31
0.0
  0
LINE
  5
64F
330
1F
100
AcDbEntity
  8
Futurebuild_Lines18
  6
Continuous
100
AcDbLine
 10
1408.913305328524
 20
675.5814548904006
 30
0.0
 11
1408.913305328524
 21
653.0814548904004
 31
0.0
  0
LINE
  5
650
330
1F
100
AcDbEntity
  8
Futurebuild_Lines18
  6
Continuous
100
AcDbLine
 10
1446.286959865082
 20
631.5037653831183
 30
0.0
 11
1408.913305328524
 21
653.0814548904004
 31
0.0
  0
LINE
  5
651
330
1F
100
AcDbEntity
  8
Futurebuild_Lines18
  6
Continuous
100
AcDbLine
 10
4200.75479050171
 20
2244.29650887534
 30
0.0
 11
4163.381135965154
 21
2265.874198382622
 31
0.0
  0
LINE
  5
652
330
1F
100
AcDbEntity
  8
Futurebuild_Lines18
  6
Continuous
100
AcDbLine
 10
1446.286959865082
 20
654.0037653831184
 30
0.0
 11
1408.913305328524
 21
675.5814548904006
 31
0.0
  0
LINE
  5
653
330
1F
100
AcDbEntity
  8
Futurebuild_Lines18
  6
Continuous
100
AcDbLine
 10
454.2538038465418
 20
981.7543750554568
 30
0.0
 11
629.6404232676664
 21
1083.013886990502
 31
0.0
  0
LINE
  5
654
330
1F
100
AcDbEntity
  8
Futurebuild_Lines18
  6
Continuous
100
AcDbLine
 10
843.3511817336318
 20
1206.399850919546
 30
0.0
 11
1034.697200358444
 21
1316.873526280944
 31
0.0
  0
LINE
  5
655
330
1F
100
AcDbEntity
  8
Futurebuild_Lines18
  6
Continuous
100
AcDbLine
 10
1248.40795882441
 20
1440.259490209989
 30
0.0
 11
1439.75397744922
 21
1550.733165571386
 31
0.0
  0
LINE
  5
656
330
1F
100
AcDbEntity
  8
Futurebuild_Lines18
  6
Continuous
100
AcDbLine
 10
1653.464735915186
 20
1674.119129500431
 30
0.0
 11
1844.810754539997
 21
1784.592804861829
 31
0.0
  0
LINE
  5
657
330
1F
100
AcDbEntity
  8
Futurebuild_Lines18
  6
Continuous
100
AcDbLine
 10
2058.521513005964
 20
1907.978768790874
 30
0.0
 11
2249.867531630776
 21
2018.452444152272
 31
0.0
  0
LINE
  5
658
330
1F
100
AcDbEntity
  8
Futurebuild_Lines18
  6
Continuous
100
AcDbLine
 10
2463.578290096745
 20
2141.838408081318
 30
0.0
 11
2654.924308721552
 21
2252.312083442714
 31
0.0
  0
LINE
  5
659
330
1F
100
AcDbEntity
  8
Futurebuild_Lines18
  6
Continuous
100
AcDbLine
 10
2868.635067187519
 20
2375.698047371759
 30
0.0
 11
3059.98108581233
 21
2486.171722733156
 31
0.0
  0
LINE
  5
65A
330
1F
100
AcDbEntity
  8
Futurebuild_Lines18
  6
Continuous
100
AcDbLine
 10
3040.495514227182
 20
2497.421722733157
 30
0.0
 11
2849.14949560237
 21
2386.948047371759
 31
0.0
  0
LINE
  5
65B
330
1F
100
AcDbEntity
  8
Futurebuild_Lines18
  6
Continuous
100
AcDbLine
 10
2635.442290248512
 20
2263.564134832946
 30
0.0
 11
2444.092718511594
 21
2153.088408081317
 31
0.0
  0
LINE
  5
65C
330
1F
100
AcDbEntity
  8
Futurebuild_Lines18
  6
Continuous
100
AcDbLine
 10
2230.385513157735
 20
2029.704495542504
 30
0.0
 11
2039.035941420814
 21
1919.228768790873
 31
0.0
  0
LINE
  5
65D
330
1F
100
AcDbEntity
  8
Futurebuild_Lines18
  6
Continuous
100
AcDbLine
 10
1825.328736066956
 20
1795.84485625206
 30
0.0
 11
1633.979164330037
 21
1685.369129500431
 31
0.0
  0
LINE
  5
65E
330
1F
100
AcDbEntity
  8
Futurebuild_Lines18
  6
Continuous
100
AcDbLine
 10
1420.26840586407
 20
1561.983165571386
 30
0.0
 11
1228.922387239261
 21
1451.509490209989
 31
0.0
  0
LINE
  5
65F
330
1F
100
AcDbEntity
  8
Futurebuild_Lines18
  6
Continuous
100
AcDbLine
 10
1015.211628773295
 20
1328.123526280944
 30
0.0
 11
823.8656101484816
 21
1217.649850919545
 31
0.0
  0
LINE
  5
660
330
1F
100
AcDbEntity
  8
Futurebuild_Lines18
  6
Continuous
100
AcDbLine
 10
610.1584047946246
 20
1094.265938380734
 30
0.0
 11
454.2538038465418
 21
1004.254375055457
 31
0.0
  0
LINE
  5
661
330
1F
100
AcDbEntity
  8
Futurebuild_Lines18
  6
Continuous
100
AcDbLine
 10
454.2538038465418
 20
1004.254375055457
 30
0.0
 11
454.2538038465418
 21
981.7543750554568
 31
0.0
  0
LINE
  5
662
330
1F
100
AcDbEntity
  8
Futurebuild_Lines18
  6
Continuous
100
AcDbLine
 10
572.7811971459591
 20
1115.841576497783
 30
0.0
 11
416.8801493099838
 21
1025.832064562739
 31
0.0
  0
LINE
  5
663
330
1F
100
AcDbEntity
  8
Futurebuild_Lines18
  6
Continuous
100
AcDbLine
 10
416.8801493099838
 20
1025.832064562739
 30
0.0
 11
416.8801493099838
 21
1003.332064562739
 31
0.0
  0
LINE
  5
664
330
1F
100
AcDbEntity
  8
Futurebuild_Lines18
  6
Continuous
100
AcDbLine
 10
454.2538038465418
 20
981.7543750554568
 30
0.0
 11
416.8801493099838
 21
1003.332064562739
 31
0.0
  0
LINE
  5
665
330
1F
100
AcDbEntity
  8
Futurebuild_Lines18
  6
Continuous
100
AcDbLine
 10
454.2538038465418
 20
1004.254375055457
 30
0.0
 11
416.8801493099838
 21
1025.832064562739
 31
0.0
  0
LINE
  5
666
330
1F
100
AcDbEntity
  8
Futurebuild_Lines18
  6
Continuous
100
AcDbLine
 10
582.9076165732286
 20
598.6880674800448
 30
0.0
 11
582.9076165732286
 21
1056.032688465481
 31
0.0
  0
LINE
  5
667
330
1F
100
AcDbEntity
  8
Futurebuild_Lines18
  6
Continuous
100
AcDbLine
 10
640.5341099643254
 20
588.8033599372851
 30
0.0
 11
620.2812711097865
 21
577.1103779727629
 31
0.0
  0
LINE
  5
668
330
1F
100
AcDbEntity
  8
Futurebuild_Lines18
  6
Continuous
100
AcDbLine
 10
620.2812711097865
 20
577.1103779727629
 30
0.0
 11
620.2812711097865
 21
1077.110377972763
 31
0.0
  0
LINE
  5
669
330
1F
100
AcDbEntity
  8
Futurebuild_Lines18
  6
Continuous
100
AcDbLine
 10
620.2812711097865
 20
1077.110377972763
 30
0.0
 11
630.0734359695585
 21
1082.763886990502
 31
0.0
  0
LINE
  5
66A
330
1F
100
AcDbEntity
  8
Futurebuild_Lines18
  6
Continuous
100
AcDbLine
 10
640.5341099643254
 20
1076.724414043719
 30
0.0
 11
640.5341099643254
 21
588.8033599372851
 31
0.0
  0
LINE
  5
66B
330
1F
100
AcDbEntity
  8
Futurebuild_Lines18
  6
Continuous
100
AcDbLine
 10
582.9076165732286
 20
598.6880674800448
 30
0.0
 11
620.2812711097865
 21
577.1103779727629
 31
0.0
  0
LINE
  5
66C
330
1F
100
AcDbEntity
  8
Futurebuild_Lines18
  6
Continuous
100
AcDbLine
 10
619.8482584078944
 20
1077.360377972763
 30
0.0
 11
620.2812711097865
 21
1077.110377972763
 31
0.0
  0
LINE
  5
66D
330
1F
100
AcDbEntity
  8
Futurebuild_Lines18
  6
Continuous
100
AcDbLine
 10
3013.248279117892
 20
2001.8459032227
 30
0.0
 11
3013.248279117892
 21
2045.433642677291
 31
0.0
  0
LINE
  5
66E
330
1F
100
AcDbEntity
  8
Futurebuild_Lines18
  6
Continuous
100
AcDbLine
 10
3013.248279117892
 20
2292.205570535381
 30
0.0
 11
3013.248279117892
 21
2459.190524208138
 31
0.0
  0
LINE
  5
66F
330
1F
100
AcDbEntity
  8
Futurebuild_Lines18
  6
Continuous
100
AcDbLine
 10
3070.87477250899
 20
1991.96119567994
 30
0.0
 11
3050.621933654451
 21
1980.268213715418
 31
0.0
  0
LINE
  5
670
330
1F
100
AcDbEntity
  8
Futurebuild_Lines18
  6
Continuous
100
AcDbLine
 10
3050.621933654451
 20
1980.268213715418
 30
0.0
 11
3050.621933654451
 21
2023.855953170008
 31
0.0
  0
LINE
  5
671
330
1F
100
AcDbEntity
  8
Futurebuild_Lines18
  6
Continuous
100
AcDbLine
 10
3050.621933654451
 20
2270.627881028099
 30
0.0
 11
3050.621933654451
 21
2480.268213715418
 31
0.0
  0
LINE
  5
672
330
1F
100
AcDbEntity
  8
Futurebuild_Lines18
  6
Continuous
100
AcDbLine
 10
3050.621933654451
 20
2480.268213715418
 30
0.0
 11
3060.414098514222
 21
2485.921722733157
 31
0.0
  0
LINE
  5
673
330
1F
100
AcDbEntity
  8
Futurebuild_Lines18
  6
Continuous
100
AcDbLine
 10
3070.87477250899
 20
2479.882249786374
 30
0.0
 11
3070.87477250899
 21
2258.934899063578
 31
0.0
  0
LINE
  5
674
330
1F
100
AcDbEntity
  8
Futurebuild_Lines18
  6
Continuous
100
AcDbLine
 10
3070.87477250899
 20
2012.162971205488
 30
0.0
 11
3070.87477250899
 21
1991.96119567994
 31
0.0
  0
LINE
  5
675
330
1F
100
AcDbEntity
  8
Futurebuild_Lines18
  6
Continuous
100
AcDbLine
 10
3013.248279117892
 20
2001.8459032227
 30
0.0
 11
3050.621933654451
 21
1980.268213715418
 31
0.0
  0
LINE
  5
676
330
1F
100
AcDbEntity
  8
Futurebuild_Lines18
  6
Continuous
100
AcDbLine
 10
3050.188920952559
 20
2480.518213715418
 30
0.0
 11
3050.621933654451
 21
2480.268213715418
 31
0.0
  0
LINE
  5
677
330
1F
100
AcDbEntity
  8
Futurebuild_Lines18
  6
Continuous
100
AcDbLine
 10
2608.145209284168
 20
1767.959536804656
 30
0.0
 11
2608.145209284168
 21
1811.600730514452
 31
0.0
  0
LINE
  5
678
330
1F
100
AcDbEntity
  8
Futurebuild_Lines18
  6
Continuous
100
AcDbLine
 10
2608.145209284168
 20
2058.372658372543
 30
0.0
 11
2608.145209284168
 21
2225.304157790092
 31
0.0
  0
LINE
  5
679
330
1F
100
AcDbEntity
  8
Futurebuild_Lines18
  6
Continuous
100
AcDbLine
 10
2665.771702675266
 20
1758.074829261896
 30
0.0
 11
2645.518863820726
 21
1746.381847297373
 31
0.0
  0
LINE
  5
67A
330
1F
100
AcDbEntity
  8
Futurebuild_Lines18
  6
Continuous
100
AcDbLine
 10
2645.518863820726
 20
1746.381847297373
 30
0.0
 11
2645.518863820726
 21
1790.023041007171
 31
0.0
  0
LINE
  5
67B
330
1F
100
AcDbEntity
  8
Futurebuild_Lines18
  6
Continuous
100
AcDbLine
 10
2645.518863820726
 20
2036.794968865261
 30
0.0
 11
2645.518863820726
 21
2246.381847297373
 31
0.0
  0
LINE
  5
67C
330
1F
100
AcDbEntity
  8
Futurebuild_Lines18
  6
Continuous
100
AcDbLine
 10
2645.518863820726
 20
2246.381847297373
 30
0.0
 11
2655.357321423445
 21
2252.062083442714
 31
0.0
  0
LINE
  5
67D
330
1F
100
AcDbEntity
  8
Futurebuild_Lines18
  6
Continuous
100
AcDbLine
 10
2665.771702675266
 20
2246.049337623532
 30
0.0
 11
2665.771702675266
 21
2025.101986900739
 31
0.0
  0
LINE
  5
67E
330
1F
100
AcDbEntity
  8
Futurebuild_Lines18
  6
Continuous
100
AcDbLine
 10
2665.771702675266
 20
1778.330059042647
 30
0.0
 11
2665.771702675266
 21
1758.074829261896
 31
0.0
  0
LINE
  5
67F
330
1F
100
AcDbEntity
  8
Futurebuild_Lines18
  6
Continuous
100
AcDbLine
 10
2608.145209284168
 20
1767.959536804656
 30
0.0
 11
2645.518863820726
 21
1746.381847297373
 31
0.0
  0
LINE
  5
680
330
1F
100
AcDbEntity
  8
Futurebuild_Lines18
  6
Continuous
100
AcDbLine
 10
2645.085851118833
 20
2246.631847297374
 30
0.0
 11
2645.518863820726
 21
2246.381847297373
 31
0.0
  0
LINE
  5
681
330
1F
100
AcDbEntity
  8
Futurebuild_Lines18
  6
Continuous
100
AcDbLine
 10
2203.134724936338
 20
1534.126624641815
 30
0.0
 11
2203.134724936338
 21
1577.714364096407
 31
0.0
  0
LINE
  5
682
330
1F
100
AcDbEntity
  8
Futurebuild_Lines18
  6
Continuous
100
AcDbLine
 10
2203.134724936338
 20
1824.486291954496
 30
0.0
 11
2203.134724936338
 21
1991.471245627251
 31
0.0
  0
LINE
  5
683
330
1F
100
AcDbEntity
  8
Futurebuild_Lines18
  6
Continuous
100
AcDbLine
 10
2260.761218327436
 20
1524.241917099056
 30
0.0
 11
2240.508379472896
 21
1512.548935134533
 31
0.0
  0
LINE
  5
684
330
1F
100
AcDbEntity
  8
Futurebuild_Lines18
  6
Continuous
100
AcDbLine
 10
2240.508379472896
 20
1512.548935134533
 30
0.0
 11
2240.508379472896
 21
1556.136674589125
 31
0.0
  0
LINE
  5
685
330
1F
100
AcDbEntity
  8
Futurebuild_Lines18
  6
Continuous
100
AcDbLine
 10
2240.508379472896
 20
1802.908602447213
 30
0.0
 11
2240.508379472896
 21
2012.548935134533
 31
0.0
  0
LINE
  5
686
330
1F
100
AcDbEntity
  8
Futurebuild_Lines18
  6
Continuous
100
AcDbLine
 10
2240.508379472896
 20
2012.548935134533
 30
0.0
 11
2250.300544332668
 21
2018.202444152272
 31
0.0
  0
LINE
  5
687
330
1F
100
AcDbEntity
  8
Futurebuild_Lines18
  6
Continuous
100
AcDbLine
 10
2260.761218327436
 20
2012.162971205488
 30
0.0
 11
2260.761218327436
 21
1791.215620482691
 31
0.0
  0
LINE
  5
688
330
1F
100
AcDbEntity
  8
Futurebuild_Lines18
  6
Continuous
100
AcDbLine
 10
2260.761218327436
 20
1544.443692624602
 30
0.0
 11
2260.761218327436
 21
1524.241917099056
 31
0.0
  0
LINE
  5
689
330
1F
100
AcDbEntity
  8
Futurebuild_Lines18
  6
Continuous
100
AcDbLine
 10
2203.134724936338
 20
1534.126624641815
 30
0.0
 11
2240.508379472896
 21
1512.548935134533
 31
0.0
  0
LINE
  5
68A
330
1F
100
AcDbEntity
  8
Futurebuild_Lines18
  6
Continuous
100
AcDbLine
 10
2240.075366771004
 20
2012.798935134533
 30
0.0
 11
2240.508379472896
 21
2012.548935134533
 31
0.0
  0
LINE
  5
68B
330
1F
100
AcDbEntity
  8
Futurebuild_Lines18
  6
Continuous
100
AcDbLine
 10
1798.07794784556
 20
1300.266985351372
 30
0.0
 11
1798.07794784556
 21
1343.854724805964
 31
0.0
  0
LINE
  5
68C
330
1F
100
AcDbEntity
  8
Futurebuild_Lines18
  6
Continuous
100
AcDbLine
 10
1798.07794784556
 20
1590.626652664052
 30
0.0
 11
1798.07794784556
 21
1757.611606336809
 31
0.0
  0
LINE
  5
68D
330
1F
100
AcDbEntity
  8
Futurebuild_Lines18
  6
Continuous
100
AcDbLine
 10
1855.704441236656
 20
1290.382277808612
 30
0.0
 11
1835.451602382118
 21
1278.689295844091
 31
0.0
  0
LINE
  5
68E
330
1F
100
AcDbEntity
  8
Futurebuild_Lines18
  6
Continuous
100
AcDbLine
 10
1835.451602382118
 20
1278.689295844091
 30
0.0
 11
1835.451602382118
 21
1322.277035298682
 31
0.0
  0
LINE
  5
68F
330
1F
100
AcDbEntity
  8
Futurebuild_Lines18
  6
Continuous
100
AcDbLine
 10
1835.451602382118
 20
1569.048963156771
 30
0.0
 11
1835.451602382118
 21
1778.689295844091
 31
0.0
  0
LINE
  5
690
330
1F
100
AcDbEntity
  8
Futurebuild_Lines18
  6
Continuous
100
AcDbLine
 10
1835.451602382118
 20
1778.689295844091
 30
0.0
 11
1845.243767241891
 21
1784.342804861829
 31
0.0
  0
LINE
  5
691
330
1F
100
AcDbEntity
  8
Futurebuild_Lines18
  6
Continuous
100
AcDbLine
 10
1855.704441236656
 20
1778.303331915046
 30
0.0
 11
1855.704441236656
 21
1557.355981192249
 31
0.0
  0
LINE
  5
692
330
1F
100
AcDbEntity
  8
Futurebuild_Lines18
  6
Continuous
100
AcDbLine
 10
1855.704441236656
 20
1310.58405333416
 30
0.0
 11
1855.704441236656
 21
1290.382277808612
 31
0.0
  0
LINE
  5
693
330
1F
100
AcDbEntity
  8
Futurebuild_Lines18
  6
Continuous
100
AcDbLine
 10
1798.07794784556
 20
1300.266985351372
 30
0.0
 11
1835.451602382118
 21
1278.689295844091
 31
0.0
  0
LINE
  5
694
330
1F
100
AcDbEntity
  8
Futurebuild_Lines18
  6
Continuous
100
AcDbLine
 10
1835.018589680225
 20
1778.939295844091
 30
0.0
 11
1835.451602382118
 21
1778.689295844091
 31
0.0
  0
LINE
  5
695
330
1F
100
AcDbEntity
  8
Futurebuild_Lines18
  6
Continuous
100
AcDbLine
 10
1393.021170754783
 20
1066.40734606093
 30
0.0
 11
1393.021170754783
 21
1109.995085515522
 31
0.0
  0
LINE
  5
696
330
1F
100
AcDbEntity
  8
Futurebuild_Lines18
  6
Continuous
100
AcDbLine
 10
1393.021170754783
 20
1356.767013373613
 30
0.0
 11
1393.021170754783
 21
1523.751967046366
 31
0.0
  0
LINE
  5
697
330
1F
100
AcDbEntity
  8
Futurebuild_Lines18
  6
Continuous
100
AcDbLine
 10
1450.64766414588
 20
1056.52263851817
 30
0.0
 11
1430.394825291341
 21
1044.829656553648
 31
0.0
  0
LINE
  5
698
330
1F
100
AcDbEntity
  8
Futurebuild_Lines18
  6
Continuous
100
AcDbLine
 10
1430.394825291341
 20
1044.829656553648
 30
0.0
 11
1430.394825291341
 21
1088.417396008241
 31
0.0
  0
LINE
  5
699
330
1F
100
AcDbEntity
  8
Futurebuild_Lines18
  6
Continuous
100
AcDbLine
 10
1430.394825291341
 20
1335.189323866331
 30
0.0
 11
1430.394825291341
 21
1544.829656553648
 31
0.0
  0
LINE
  5
69A
330
1F
100
AcDbEntity
  8
Futurebuild_Lines18
  6
Continuous
100
AcDbLine
 10
1430.394825291341
 20
1544.829656553648
 30
0.0
 11
1440.186990151113
 21
1550.483165571386
 31
0.0
  0
LINE
  5
69B
330
1F
100
AcDbEntity
  8
Futurebuild_Lines18
  6
Continuous
100
AcDbLine
 10
1450.64766414588
 20
1544.443692624602
 30
0.0
 11
1450.64766414588
 21
1323.496341901808
 31
0.0
  0
LINE
  5
69C
330
1F
100
AcDbEntity
  8
Futurebuild_Lines18
  6
Continuous
100
AcDbLine
 10
1450.64766414588
 20
1076.724414043719
 30
0.0
 11
1450.64766414588
 21
1056.52263851817
 31
0.0
  0
LINE
  5
69D
330
1F
100
AcDbEntity
  8
Futurebuild_Lines18
  6
Continuous
100
AcDbLine
 10
1393.021170754783
 20
1066.40734606093
 30
0.0
 11
1430.394825291341
 21
1044.829656553648
 31
0.0
  0
LINE
  5
69E
330
1F
100
AcDbEntity
  8
Futurebuild_Lines18
  6
Continuous
100
AcDbLine
 10
1429.961812589449
 20
1545.079656553648
 30
0.0
 11
1430.394825291341
 21
1544.829656553648
 31
0.0
  0
LINE
  5
69F
330
1F
100
AcDbEntity
  8
Futurebuild_Lines18
  6
Continuous
100
AcDbLine
 10
987.9643936640061
 20
832.5477067704873
 30
0.0
 11
987.9643936640061
 21
876.1354462250798
 31
0.0
  0
LINE
  5
6A0
330
1F
100
AcDbEntity
  8
Futurebuild_Lines18
  6
Continuous
100
AcDbLine
 10
987.9643936640061
 20
1122.907374083168
 30
0.0
 11
987.9643936640061
 21
1289.892327755924
 31
0.0
  0
LINE
  5
6A1
330
1F
100
AcDbEntity
  8
Futurebuild_Lines18
  6
Continuous
100
AcDbLine
 10
1045.590887055102
 20
822.6629992277274
 30
0.0
 11
1025.338048200564
 21
810.9700172632056
 31
0.0
  0
LINE
  5
6A2
330
1F
100
AcDbEntity
  8
Futurebuild_Lines18
  6
Continuous
100
AcDbLine
 10
1025.338048200564
 20
810.9700172632056
 30
0.0
 11
1025.338048200564
 21
854.5577567177982
 31
0.0
  0
LINE
  5
6A3
330
1F
100
AcDbEntity
  8
Futurebuild_Lines18
  6
Continuous
100
AcDbLine
 10
1025.338048200564
 20
1101.329684575886
 30
0.0
 11
1025.338048200564
 21
1310.970017263205
 31
0.0
  0
LINE
  5
6A4
330
1F
100
AcDbEntity
  8
Futurebuild_Lines18
  6
Continuous
100
AcDbLine
 10
1025.338048200564
 20
1310.970017263205
 30
0.0
 11
1035.130213060336
 21
1316.623526280945
 31
0.0
  0
LINE
  5
6A5
330
1F
100
AcDbEntity
  8
Futurebuild_Lines18
  6
Continuous
100
AcDbLine
 10
1045.590887055102
 20
1310.584053334162
 30
0.0
 11
1045.590887055102
 21
1089.636702611364
 31
0.0
  0
LINE
  5
6A6
330
1F
100
AcDbEntity
  8
Futurebuild_Lines18
  6
Continuous
100
AcDbLine
 10
1045.590887055102
 20
842.8647747532762
 30
0.0
 11
1045.590887055102
 21
822.6629992277274
 31
0.0
  0
LINE
  5
6A7
330
1F
100
AcDbEntity
  8
Futurebuild_Lines18
  6
Continuous
100
AcDbLine
 10
987.9643936640061
 20
832.5477067704873
 30
0.0
 11
1025.338048200564
 21
810.9700172632056
 31
0.0
  0
LINE
  5
6A8
330
1F
100
AcDbEntity
  8
Futurebuild_Lines18
  6
Continuous
100
AcDbLine
 10
1024.905035498672
 20
1311.220017263206
 30
0.0
 11
1025.338048200564
 21
1310.970017263205
 31
0.0
  0
LINE
  5
6A9
330
1F
100
AcDbEntity
  8
Futurebuild_Lines18
  6
Continuous
100
AcDbLine
 10
1446.286959865082
 20
408.5037653831184
 30
0.0
 11
1604.786083898626
 21
500.0132773102052
 31
0.0
  0
LINE
  5
6AA
330
1F
100
AcDbEntity
  8
Futurebuild_Lines18
  6
Continuous
100
AcDbLine
 10
3498.062807870381
 20
1593.09710354575
 30
0.0
 11
4200.75479050171
 21
1998.79650887534
 31
0.0
  0
LINE
  5
6AB
330
1F
100
AcDbEntity
  8
Futurebuild_Lines18
  6
Continuous
100
AcDbLine
 10
4200.75479050171
 20
1998.79650887534
 30
0.0
 11
4200.75479050171
 21
2021.79650887534
 31
0.0
  0
LINE
  5
6AC
330
1F
100
AcDbEntity
  8
Futurebuild_Lines18
  6
Continuous
100
AcDbLine
 10
1446.286959865082
 20
431.5037653831183
 30
0.0
 11
1446.286959865082
 21
408.5037653831184
 31
0.0
  0
LINE
  5
6AD
330
1F
100
AcDbEntity
  8
Futurebuild_Lines18
  6
Continuous
100
AcDbLine
 10
4163.381135965154
 20
2043.374198382622
 30
0.0
 11
4066.837607954479
 21
1987.634766497143
 31
0.0
  0
LINE
  5
6AE
330
1F
100
AcDbEntity
  8
Futurebuild_Lines18
  6
Continuous
100
AcDbLine
 10
3995.158568821271
 20
1946.250853958333
 30
0.0
 11
3661.780830863702
 21
1753.775127206701
 31
0.0
  0
LINE
  5
6AF
330
1F
100
AcDbEntity
  8
Futurebuild_Lines18
  6
Continuous
100
AcDbLine
 10
1408.913305328524
 20
453.0814548904004
 30
0.0
 11
1408.913305328524
 21
430.0814548904005
 31
0.0
  0
LINE
  5
6B0
330
1F
100
AcDbEntity
  8
Futurebuild_Lines18
  6
Continuous
100
AcDbLine
 10
1446.286959865082
 20
408.5037653831184
 30
0.0
 11
1408.913305328524
 21
430.0814548904005
 31
0.0
  0
LINE
  5
6B1
330
1F
100
AcDbEntity
  8
Futurebuild_Lines18
  6
Continuous
100
AcDbLine
 10
4200.75479050171
 20
2021.79650887534
 30
0.0
 11
4163.381135965154
 21
2043.374198382622
 31
0.0
  0
LINE
  5
6B2
330
1F
100
AcDbEntity
  8
Futurebuild_Lines18
  6
Continuous
100
AcDbLine
 10
1446.286959865082
 20
431.5037653831183
 30
0.0
 11
1408.913305328524
 21
453.0814548904004
 31
0.0
  0
LINE
  5
6B3
330
1F
100
AcDbEntity
  8
Futurebuild_Lines08
  6
Continuous
100
AcDbLine
 10
3627.471893154944
 20
1885.882065517798
 30
0.0
 11
3667.977570864021
 21
1909.268029446842
 31
0.0
  0
LINE
  5
6B4
330
1F
100
AcDbEntity
  8
Futurebuild_Lines08
  6
Continuous
100
AcDbLine
 10
4032.528670245721
 20
1955.671113060817
 30
0.0
 11
4049.18100441501
 21
1965.285342676091
 31
0.0
  0
LINE
  5
6B5
330
1F
100
AcDbEntity
  8
Futurebuild_Lines08
  6
Continuous
100
AcDbLine
 10
3627.471893154944
 20
1721.811473770374
 30
0.0
 11
3644.124227324231
 21
1731.425703385649
 31
0.0
  0
LINE
  5
6B6
330
1F
100
AcDbEntity
  8
Futurebuild_Lines08
  6
Continuous
100
AcDbLine
 10
3651.325236694733
 20
1735.583208084145
 30
0.0
 11
3667.977570864021
 21
1745.197437699419
 31
0.0
  0
LINE
  5
6B7
330
1F
100
AcDbEntity
  8
Futurebuild_Lines08
  6
Continuous
100
AcDbLine
 10
3627.471893154944
 20
1721.811473770375
 30
0.0
 11
3644.124227324232
 21
1731.425703385649
 31
0.0
  0
LINE
  5
6B8
330
1F
100
AcDbEntity
  8
Futurebuild_Lines08
  6
Continuous
100
AcDbLine
 10
3651.325236694734
 20
1735.583208084144
 30
0.0
 11
3667.977570864021
 21
1745.197437699418
 31
0.0
  0
LINE
  5
6B9
330
1F
100
AcDbEntity
  8
Futurebuild_Lines08
  6
Continuous
100
AcDbLine
 10
4032.528670245721
 20
2119.741704808241
 30
0.0
 11
4073.034347954799
 21
2143.127668737284
 31
0.0
  0
LINE
  5
6BA
330
1F
100
AcDbEntity
  8
Futurebuild_Lines08
  6
Continuous
100
AcDbLine
 10
4032.528670245721
 20
2114.737515999232
 30
0.0
 11
4073.034347954799
 21
2138.123479928277
 31
0.0
  0
LINE
  5
6BB
330
1F
100
AcDbEntity
  8
Futurebuild_Lines08
  6
Continuous
100
AcDbLine
 10
4032.528670245721
 20
2093.671113060818
 30
0.0
 11
4049.18100441501
 21
2103.285342676092
 31
0.0
  0
LINE
  5
6BC
330
1F
100
AcDbEntity
  8
Futurebuild_Lines08
  6
Continuous
100
AcDbLine
 10
4056.38201378551
 20
2107.442847374587
 30
0.0
 11
4073.034347954799
 21
2117.057076989861
 31
0.0
  0
LINE
  5
6BD
330
1F
100
AcDbEntity
  8
Futurebuild_Lines08
  6
Continuous
100
AcDbLine
 10
4032.528670245721
 20
1945.008176662941
 30
0.0
 11
4073.0343479548
 21
1968.394140591985
 31
0.0
  0
LINE
  5
6BE
330
1F
100
AcDbEntity
  8
Futurebuild_Lines08
  6
Continuous
100
AcDbLine
 10
4056.38201378551
 20
1969.442847374586
 30
0.0
 11
4073.034347954799
 21
1979.057076989861
 31
0.0
  0
LINE
  5
6BF
330
1F
100
AcDbEntity
  8
Futurebuild_Lines08
  6
Continuous
100
AcDbLine
 10
3627.471893154944
 20
1859.811473770375
 30
0.0
 11
3644.124227324231
 21
1869.425703385649
 31
0.0
  0
LINE
  5
6C0
330
1F
100
AcDbEntity
  8
Futurebuild_Lines08
  6
Continuous
100
AcDbLine
 10
3651.325236694733
 20
1873.583208084145
 30
0.0
 11
3667.977570864021
 21
1883.197437699419
 31
0.0
  0
LINE
  5
6C1
330
1F
100
AcDbEntity
  8
Futurebuild_Lines08
  6
Continuous
100
AcDbLine
 10
3627.471893154944
 20
1711.148537372499
 30
0.0
 11
3667.977570864021
 21
1734.534501301543
 31
0.0
  0
LINE
  5
6C2
330
1F
100
AcDbEntity
  8
Futurebuild_Lines08
  6
Continuous
100
AcDbLine
 10
4032.528670245721
 20
2109.078768410364
 30
0.0
 11
4073.0343479548
 21
2132.464732339409
 31
0.0
  0
LINE
  5
6C3
330
1F
100
AcDbEntity
  8
Futurebuild_Lines08
  6
Continuous
100
AcDbLine
 10
4032.528670245721
 20
2098.675301869825
 30
0.0
 11
4073.0343479548
 21
2122.061265798869
 31
0.0
  0
LINE
  5
6C4
330
1F
100
AcDbEntity
  8
Futurebuild_Lines08
  6
Continuous
100
AcDbLine
 10
4032.528670245721
 20
2104.074579601358
 30
0.0
 11
4073.034347954799
 21
2127.460543530401
 31
0.0
  0
LINE
  5
6C5
330
1F
100
AcDbEntity
  8
Futurebuild_Lines08
  6
Continuous
100
AcDbLine
 10
4032.528670245721
 20
2093.671113060817
 30
0.0
 11
4049.18100441501
 21
2103.285342676092
 31
0.0
  0
LINE
  5
6C6
330
1F
100
AcDbEntity
  8
Futurebuild_Lines08
  6
Continuous
100
AcDbLine
 10
4056.382013785511
 20
2107.442847374587
 30
0.0
 11
4073.034347954799
 21
2117.057076989862
 31
0.0
  0
LINE
  5
6C7
330
1F
100
AcDbEntity
  8
Futurebuild_Lines08
  6
Continuous
100
AcDbLine
 10
4032.528670245721
 20
1950.666924251808
 30
0.0
 11
4073.034347954799
 21
1974.052888180854
 31
0.0
  0
LINE
  5
6C8
330
1F
100
AcDbEntity
  8
Futurebuild_Lines08
  6
Continuous
100
AcDbLine
 10
4032.528670245721
 20
1934.604710122401
 30
0.0
 11
4073.034347954799
 21
1957.990674051446
 31
0.0
  0
LINE
  5
6C9
330
1F
100
AcDbEntity
  8
Futurebuild_Lines08
  6
Continuous
100
AcDbLine
 10
4032.528670245721
 20
1940.003987853933
 30
0.0
 11
4073.0343479548
 21
1963.389951782978
 31
0.0
  0
LINE
  5
6CA
330
1F
100
AcDbEntity
  8
Futurebuild_Lines08
  6
Continuous
100
AcDbLine
 10
4032.528670245721
 20
1929.600521313393
 30
0.0
 11
4073.034347954799
 21
1952.986485242438
 31
0.0
  0
LINE
  5
6CB
330
1F
100
AcDbEntity
  8
Futurebuild_Lines08
  6
Continuous
100
AcDbLine
 10
4032.528670245721
 20
1955.671113060817
 30
0.0
 11
4049.18100441501
 21
1965.285342676091
 31
0.0
  0
LINE
  5
6CC
330
1F
100
AcDbEntity
  8
Futurebuild_Lines08
  6
Continuous
100
AcDbLine
 10
4056.38201378551
 20
1969.442847374586
 30
0.0
 11
4073.034347954799
 21
1979.057076989861
 31
0.0
  0
LINE
  5
6CD
330
1F
100
AcDbEntity
  8
Futurebuild_Lines08
  6
Continuous
100
AcDbLine
 10
3627.471893154944
 20
1880.877876708789
 30
0.0
 11
3667.977570864021
 21
1904.263840637834
 31
0.0
  0
LINE
  5
6CE
330
1F
100
AcDbEntity
  8
Futurebuild_Lines08
  6
Continuous
100
AcDbLine
 10
3627.471893154944
 20
1875.219129119923
 30
0.0
 11
3667.977570864021
 21
1898.605093048966
 31
0.0
  0
LINE
  5
6CF
330
1F
100
AcDbEntity
  8
Futurebuild_Lines08
  6
Continuous
100
AcDbLine
 10
3627.471893154944
 20
1870.214940310914
 30
0.0
 11
3667.977570864021
 21
1893.600904239959
 31
0.0
  0
LINE
  5
6D0
330
1F
100
AcDbEntity
  8
Futurebuild_Lines08
  6
Continuous
100
AcDbLine
 10
3627.471893154944
 20
1864.815662579383
 30
0.0
 11
3667.977570864022
 21
1888.201626508428
 31
0.0
  0
LINE
  5
6D1
330
1F
100
AcDbEntity
  8
Futurebuild_Lines08
  6
Continuous
100
AcDbLine
 10
3627.471893154944
 20
1859.811473770375
 30
0.0
 11
3644.124227324232
 21
1869.425703385649
 31
0.0
  0
LINE
  5
6D2
330
1F
100
AcDbEntity
  8
Futurebuild_Lines08
  6
Continuous
100
AcDbLine
 10
3651.325236694734
 20
1873.583208084145
 30
0.0
 11
3667.977570864021
 21
1883.197437699419
 31
0.0
  0
LINE
  5
6D3
330
1F
100
AcDbEntity
  8
Futurebuild_Lines08
  6
Continuous
100
AcDbLine
 10
3627.471893154943
 20
1716.807284961367
 30
0.0
 11
3667.977570864021
 21
1740.193248890411
 31
0.0
  0
LINE
  5
6D4
330
1F
100
AcDbEntity
  8
Futurebuild_Lines08
  6
Continuous
100
AcDbLine
 10
3627.471893154944
 20
1700.745070831959
 30
0.0
 11
3667.977570864021
 21
1724.131034761004
 31
0.0
  0
LINE
  5
6D5
330
1F
100
AcDbEntity
  8
Futurebuild_Lines08
  6
Continuous
100
AcDbLine
 10
3627.471893154943
 20
1706.144348563491
 30
0.0
 11
3667.977570864021
 21
1729.530312492535
 31
0.0
  0
LINE
  5
6D6
330
1F
100
AcDbEntity
  8
Futurebuild_Lines08
  6
Continuous
100
AcDbLine
 10
3627.471893154943
 20
1695.740882022952
 30
0.0
 11
3667.977570864021
 21
1719.126845951996
 31
0.0
  0
LINE
  5
6D7
330
1F
100
AcDbEntity
  8
Futurebuild_Lines08
  6
Continuous
100
AcDbLine
 10
3627.471893154944
 20
1721.811473770375
 30
0.0
 11
3644.124227324232
 21
1731.425703385649
 31
0.0
  0
LINE
  5
6D8
330
1F
100
AcDbEntity
  8
Futurebuild_Lines08
  6
Continuous
100
AcDbLine
 10
3651.325236694732
 20
1735.583208084144
 30
0.0
 11
3667.977570864022
 21
1745.197437699419
 31
0.0
  0
LINE
  5
6D9
330
1F
100
AcDbEntity
  8
Futurebuild_Lines08
  6
Continuous
100
AcDbLine
 10
3628.102757424232
 20
1860.175703426071
 30
0.0
 11
3644.124227324232
 21
1869.425703385649
 31
0.0
  0
LINE
  5
6DA
330
1F
100
AcDbEntity
  8
Futurebuild_Lines08
  6
Continuous
100
AcDbLine
 10
4033.159534515009
 20
1956.035342716513
 30
0.0
 11
4049.18100441501
 21
1965.285342676091
 31
0.0
  0
LINE
  5
6DB
330
1F
100
AcDbEntity
  8
Futurebuild_Lines08
  6
Continuous
100
AcDbLine
 10
4033.159534515009
 20
2094.035342716513
 30
0.0
 11
4049.18100441501
 21
2103.285342676091
 31
0.0
  0
LINE
  5
6DC
330
1F
100
AcDbEntity
  8
Futurebuild_Lines18
  6
Continuous
100
AcDbLine
 10
3512.568898649233
 20
1624.47219896181
 30
0.0
 11
3512.568898649233
 21
1824.47219896181
 31
0.0
  0
CIRCLE
  5
6DD
330
1F
100
AcDbEntity
  8
Futurebuild_Lines18
  6
Continuous
100
AcDbCircle
 10
4016.002401023821
 20
2171.078871863576
 30
0.0
 40
2.930456099344112
  0
CIRCLE
  5
6DE
330
1F
100
AcDbEntity
  8
Futurebuild_Lines18
  6
Continuous
100
AcDbCircle
 10
4036.776571523672
 20
2157.874254282788
 30
0.0
 40
2.930456099344112
  0
CIRCLE
  5
6DF
330
1F
100
AcDbEntity
  8
Futurebuild_Lines18
  6
Continuous
100
AcDbCircle
 10
3609.454456664878
 20
1936.256944406323
 30
0.0
 40
2.930456099344112
  0
CIRCLE
  5
6E0
330
1F
100
AcDbEntity
  8
Futurebuild_Lines18
  6
Continuous
100
AcDbCircle
 10
3630.22862716473
 20
1923.052326825534
 30
0.0
 40
2.930456099344112
  0
CIRCLE
  5
6E1
330
1F
100
AcDbEntity
  8
Futurebuild_Lines18
  6
Continuous
100
AcDbCircle
 10
3200.908128332898
 20
1699.708200012218
 30
0.0
 40
2.930456099344112
  0
CIRCLE
  5
6E2
330
1F
100
AcDbEntity
  8
Futurebuild_Lines18
  6
Continuous
100
AcDbCircle
 10
3221.68229883275
 20
1686.503582431429
 30
0.0
 40
2.930456099344112
  0
CIRCLE
  5
6E3
330
1F
100
AcDbEntity
  8
Futurebuild_Lines18
  6
Continuous
100
AcDbCircle
 10
3360.198753027731
 20
1731.101769658854
 30
0.0
 40
2.930456099344112
  0
CIRCLE
  5
6E4
330
1F
100
AcDbEntity
  8
Futurebuild_Lines18
  6
Continuous
100
AcDbCircle
 10
3446.801293498691
 20
1781.101769498614
 30
0.0
 40
2.930456099344112
  0
CIRCLE
  5
6E5
330
1F
100
AcDbEntity
  8
Futurebuild_Lines18
  6
Continuous
100
AcDbCircle
 10
3440.491716868717
 20
1569.43644868065
 30
0.0
 40
2.930456099344112
  0
CIRCLE
  5
6E6
330
1F
100
AcDbEntity
  8
Futurebuild_Lines18
  6
Continuous
100
AcDbCircle
 10
3483.860651635231
 20
1721.756349365659
 30
0.0
 40
2.930456099344112
  0
CIRCLE
  5
6E7
330
1F
100
AcDbEntity
  8
Futurebuild_Lines18
  6
Continuous
100
AcDbCircle
 10
3479.063945887967
 20
1609.240940087512
 30
0.0
 40
2.930456099344112
  0
CIRCLE
  5
6E8
330
1F
100
AcDbEntity
  8
Futurebuild_Lines18
  6
Continuous
100
AcDbCircle
 10
3486.372572629582
 20
1780.677999691036
 30
0.0
 40
2.930456099344112
  0
CIRCLE
  5
6E9
330
1F
100
AcDbEntity
  8
Futurebuild_Lines18
  6
Continuous
100
AcDbCircle
 10
3481.492707769734
 20
1666.211943014255
 30
0.0
 40
2.930456099344112
  0
CIRCLE
  5
6EA
330
1F
100
AcDbEntity
  8
Futurebuild_Lines18
  6
Continuous
100
AcDbCircle
 10
3012.739319136546
 20
1322.473487558085
 30
0.0
 40
2.930456099344112
  0
CIRCLE
  5
6EB
330
1F
100
AcDbEntity
  8
Futurebuild_Lines18
  6
Continuous
100
AcDbCircle
 10
3099.341859607506
 20
1372.473487397845
 30
0.0
 40
2.930456099344112
  0
CIRCLE
  5
6EC
330
1F
100
AcDbEntity
  8
Futurebuild_Lines18
  6
Continuous
100
AcDbCircle
 10
3185.944400078466
 20
1422.473487237605
 30
0.0
 40
2.930456099344112
  0
CIRCLE
  5
6ED
330
1F
100
AcDbEntity
  8
Futurebuild_Lines18
  6
Continuous
100
AcDbCircle
 10
3272.546940549422
 20
1472.473487077365
 30
0.0
 40
2.930456099344112
  0
CIRCLE
  5
6EE
330
1F
100
AcDbEntity
  8
Futurebuild_Lines18
  6
Continuous
100
AcDbCircle
 10
3359.149481020378
 20
1522.473486917125
 30
0.0
 40
2.930456099344112
  0
CIRCLE
  5
6EF
330
1F
100
AcDbEntity
  8
Futurebuild_Lines18
  6
Continuous
100
AcDbCircle
 10
3021.831426151973
 20
1535.745302829467
 30
0.0
 40
2.930456099344112
  0
CIRCLE
  5
6F0
330
1F
100
AcDbEntity
  8
Futurebuild_Lines18
  6
Continuous
100
AcDbCircle
 10
3108.433966622933
 20
1585.745302669227
 30
0.0
 40
2.930456099344112
  0
CIRCLE
  5
6F1
330
1F
100
AcDbEntity
  8
Futurebuild_Lines18
  6
Continuous
100
AcDbCircle
 10
3195.036507093889
 20
1635.745302508987
 30
0.0
 40
2.930456099344112
  0
CIRCLE
  5
6F2
330
1F
100
AcDbEntity
  8
Futurebuild_Lines18
  6
Continuous
100
AcDbCircle
 10
3281.639047564848
 20
1685.745302348747
 30
0.0
 40
2.930456099344112
  0
CIRCLE
  5
6F3
330
1F
100
AcDbEntity
  8
Futurebuild_Lines18
  6
Continuous
100
AcDbCircle
 10
1642.609582907832
 20
740.9035676991709
 30
0.0
 40
2.930456099344112
  0
CIRCLE
  5
6F4
330
1F
100
AcDbEntity
  8
Futurebuild_Lines18
  6
Continuous
100
AcDbCircle
 10
1902.417204320708
 20
890.9035672184513
 30
0.0
 40
2.930456099344112
  0
CIRCLE
  5
6F5
330
1F
100
AcDbEntity
  8
Futurebuild_Lines18
  6
Continuous
100
AcDbCircle
 10
1989.019744791666
 20
940.9035670582115
 30
0.0
 40
2.930456099344112
  0
CIRCLE
  5
6F6
330
1F
100
AcDbEntity
  8
Futurebuild_Lines18
  6
Continuous
100
AcDbCircle
 10
2075.622285262625
 20
990.9035668979718
 30
0.0
 40
2.930456099344112
  0
CIRCLE
  5
6F7
330
1F
100
AcDbEntity
  8
Futurebuild_Lines18
  6
Continuous
100
AcDbCircle
 10
1729.21212337879
 20
790.9035675389313
 30
0.0
 40
2.930456099344112
  0
CIRCLE
  5
6F8
330
1F
100
AcDbEntity
  8
Futurebuild_Lines18
  6
Continuous
100
AcDbCircle
 10
1815.814663849749
 20
840.9035673786915
 30
0.0
 40
2.930456099344112
  0
CIRCLE
  5
6F9
330
1F
100
AcDbEntity
  8
Futurebuild_Lines18
  6
Continuous
100
AcDbCircle
 10
2162.224825733582
 20
1040.903566737732
 30
0.0
 40
2.930456099344112
  0
CIRCLE
  5
6FA
330
1F
100
AcDbEntity
  8
Futurebuild_Lines18
  6
Continuous
100
AcDbCircle
 10
2248.827366204541
 20
1090.903566577491
 30
0.0
 40
2.930456099344112
  0
CIRCLE
  5
6FB
330
1F
100
AcDbEntity
  8
Futurebuild_Lines18
  6
Continuous
100
AcDbCircle
 10
2332.390327606653
 20
1137.004902616761
 30
0.0
 40
2.930456099344112
  0
CIRCLE
  5
6FC
330
1F
100
AcDbEntity
  8
Futurebuild_Lines18
  6
Continuous
100
AcDbCircle
 10
2592.197949019529
 20
1287.004902136041
 30
0.0
 40
2.930456099344112
  0
CIRCLE
  5
6FD
330
1F
100
AcDbEntity
  8
Futurebuild_Lines18
  6
Continuous
100
AcDbCircle
 10
2678.800489490487
 20
1337.004901975801
 30
0.0
 40
2.930456099344112
  0
CIRCLE
  5
6FE
330
1F
100
AcDbEntity
  8
Futurebuild_Lines18
  6
Continuous
100
AcDbCircle
 10
2765.403029961446
 20
1387.004901815561
 30
0.0
 40
2.930456099344112
  0
CIRCLE
  5
6FF
330
1F
100
AcDbEntity
  8
Futurebuild_Lines18
  6
Continuous
100
AcDbCircle
 10
2418.992868077612
 20
1187.004902456521
 30
0.0
 40
2.930456099344112
  0
CIRCLE
  5
700
330
1F
100
AcDbEntity
  8
Futurebuild_Lines18
  6
Continuous
100
AcDbCircle
 10
2505.595408548571
 20
1237.004902296281
 30
0.0
 40
2.930456099344112
  0
CIRCLE
  5
701
330
1F
100
AcDbEntity
  8
Futurebuild_Lines18
  6
Continuous
100
AcDbCircle
 10
2852.005570432404
 20
1437.004901655321
 30
0.0
 40
2.930456099344112
  0
CIRCLE
  5
702
330
1F
100
AcDbEntity
  8
Futurebuild_Lines18
  6
Continuous
100
AcDbCircle
 10
2938.60811090336
 20
1487.004901495081
 30
0.0
 40
2.930456099344112
  0
CIRCLE
  5
703
330
1F
100
AcDbEntity
  8
Futurebuild_Lines18
  6
Continuous
100
AcDbCircle
 10
1633.517475892406
 20
527.6317524277885
 30
0.0
 40
2.930456099344112
  0
CIRCLE
  5
704
330
1F
100
AcDbEntity
  8
Futurebuild_Lines18
  6
Continuous
100
AcDbCircle
 10
1893.325097305282
 20
677.6317519470693
 30
0.0
 40
2.930456099344112
  0
CIRCLE
  5
705
330
1F
100
AcDbEntity
  8
Futurebuild_Lines18
  6
Continuous
100
AcDbCircle
 10
1979.92763777624
 20
727.6317517868291
 30
0.0
 40
2.930456099344112
  0
CIRCLE
  5
706
330
1F
100
AcDbEntity
  8
Futurebuild_Lines18
  6
Continuous
100
AcDbCircle
 10
2066.530178247198
 20
777.6317516265893
 30
0.0
 40
2.930456099344112
  0
CIRCLE
  5
707
330
1F
100
AcDbEntity
  8
Futurebuild_Lines18
  6
Continuous
100
AcDbCircle
 10
1720.120016363364
 20
577.6317522675489
 30
0.0
 40
2.930456099344112
  0
CIRCLE
  5
708
330
1F
100
AcDbEntity
  8
Futurebuild_Lines18
  6
Continuous
100
AcDbCircle
 10
1806.722556834322
 20
627.6317521073091
 30
0.0
 40
2.930456099344112
  0
CIRCLE
  5
709
330
1F
100
AcDbEntity
  8
Futurebuild_Lines18
  6
Continuous
100
AcDbCircle
 10
2153.132718718156
 20
827.6317514663491
 30
0.0
 40
2.930456099344112
  0
CIRCLE
  5
70A
330
1F
100
AcDbEntity
  8
Futurebuild_Lines18
  6
Continuous
100
AcDbCircle
 10
2239.735259189114
 20
877.6317513061093
 30
0.0
 40
2.930456099344112
  0
CIRCLE
  5
70B
330
1F
100
AcDbEntity
  8
Futurebuild_Lines18
  6
Continuous
100
AcDbCircle
 10
2323.298220591227
 20
923.7330873453787
 30
0.0
 40
2.930456099344112
  0
CIRCLE
  5
70C
330
1F
100
AcDbEntity
  8
Futurebuild_Lines18
  6
Continuous
100
AcDbCircle
 10
2583.105842004102
 20
1073.733086864659
 30
0.0
 40
2.930456099344112
  0
CIRCLE
  5
70D
330
1F
100
AcDbEntity
  8
Futurebuild_Lines18
  6
Continuous
100
AcDbCircle
 10
2669.70838247506
 20
1123.733086704419
 30
0.0
 40
2.930456099344112
  0
CIRCLE
  5
70E
330
1F
100
AcDbEntity
  8
Futurebuild_Lines18
  6
Continuous
100
AcDbCircle
 10
2756.310922946019
 20
1173.73308654418
 30
0.0
 40
2.930456099344112
  0
CIRCLE
  5
70F
330
1F
100
AcDbEntity
  8
Futurebuild_Lines18
  6
Continuous
100
AcDbCircle
 10
2409.900761062185
 20
973.7330871851385
 30
0.0
 40
2.930456099344112
  0
CIRCLE
  5
710
330
1F
100
AcDbEntity
  8
Futurebuild_Lines18
  6
Continuous
100
AcDbCircle
 10
2496.503301533144
 20
1023.733087024899
 30
0.0
 40
2.930456099344112
  0
CIRCLE
  5
711
330
1F
100
AcDbEntity
  8
Futurebuild_Lines18
  6
Continuous
100
AcDbCircle
 10
2842.913463416977
 20
1223.733086383939
 30
0.0
 40
2.930456099344112
  0
CIRCLE
  5
712
330
1F
100
AcDbEntity
  8
Futurebuild_Lines18
  6
Continuous
100
AcDbCircle
 10
2929.516003887933
 20
1273.733086223699
 30
0.0
 40
2.930456099344112
  0
CIRCLE
  5
713
330
1F
100
AcDbEntity
  8
Futurebuild_Lines18
  6
Continuous
100
AcDbCircle
 10
1620.912355521116
 20
657.3954939284844
 30
0.0
 40
2.930456099344112
  0
CIRCLE
  5
714
330
1F
100
AcDbEntity
  8
Futurebuild_Lines18
  6
Continuous
100
AcDbCircle
 10
1621.171367237134
 20
544.778183429673
 30
0.0
 40
2.930456099344112
  0
CIRCLE
  5
715
330
1F
100
AcDbEntity
  8
Futurebuild_Lines18
  6
Continuous
100
AcDbCircle
 10
1620.776717230687
 20
716.3705075054394
 30
0.0
 40
2.930456099344112
  0
CIRCLE
  5
716
330
1F
100
AcDbEntity
  8
Futurebuild_Lines18
  6
Continuous
100
AcDbCircle
 10
1621.040219358582
 20
601.8007829757406
 30
0.0
 40
2.930456099344112
  0
CIRCLE
  5
717
330
1F
100
AcDbEntity
  8
Futurebuild_Lines18
  6
Continuous
100
AcDbCircle
 10
1577.317827522579
 20
765.2572236769325
 30
0.0
 40
2.930456099344112
  0
CIRCLE
  5
718
330
1F
100
AcDbEntity
  8
Futurebuild_Lines18
  6
Continuous
100
AcDbCircle
 10
1598.091998022431
 20
752.0526060961439
 30
0.0
 40
2.930456099344112
  0
CIRCLE
  5
719
330
1F
100
AcDbEntity
  8
Futurebuild_Lines18
  6
Continuous
100
AcDbCircle
 10
1984.757399043013
 20
997.450027563038
 30
0.0
 40
2.930456099344112
  0
CIRCLE
  5
71A
330
1F
100
AcDbEntity
  8
Futurebuild_Lines18
  6
Continuous
100
AcDbCircle
 10
2005.531569542864
 20
984.2454099822494
 30
0.0
 40
2.930456099344112
  0
CIRCLE
  5
71B
330
1F
100
AcDbEntity
  8
Futurebuild_Lines18
  6
Continuous
100
AcDbCircle
 10
2390.567851839566
 20
1231.744800782936
 30
0.0
 40
2.930456099344112
  0
CIRCLE
  5
71C
330
1F
100
AcDbEntity
  8
Futurebuild_Lines18
  6
Continuous
100
AcDbCircle
 10
2411.342022339417
 20
1218.540183202147
 30
0.0
 40
2.930456099344112
  0
CIRCLE
  5
71D
330
1F
100
AcDbEntity
  8
Futurebuild_Lines18
  6
Continuous
100
AcDbCircle
 10
2798.819720168787
 20
1466.403855235822
 30
0.0
 40
2.930456099344112
  0
CIRCLE
  5
71E
330
1F
100
AcDbEntity
  8
Futurebuild_Lines18
  6
Continuous
100
AcDbCircle
 10
2819.593890668639
 20
1453.199237655033
 30
0.0
 40
2.930456099344112
  0
MTEXT
  5
720
102
{ACAD_REACTORS
330
721
102
}
330
1F
100
AcDbEntity
  8
Futurebuild_Text
  6
Continuous
100
AcDbMText
 10
2793.917129018906
 20
858.8174701970628
 30
0.0
 40
20.0
 41
0.0
 71
     1
 72
     1
  1
{ }
  7
Arial
 73
     1
 44
1.0
  0
LEADER
  5
721
330
1F
100
AcDbEntity
  8
Futurebuild_Text
  6
Continuous
100
AcDbLeader
  3
GENERATED_STYLE__1
 73
     0
 74
     0
 40
20.0
 76
     3
 10
2353.573659830091
 20
1055.304445034729
 30
0.0
 10
2550.060634667756
 20
858.8174701970628
 30
0.0
 10
2789.917129018906
 20
858.8174701970628
 30
0.0
340
720
213
4.0
223
0.0
233
0.0
  0
MTEXT
  5
728
102
{ACAD_REACTORS
330
729
102
}
330
1F
100
AcDbEntity
  8
Futurebuild_Text
  6
Continuous
100
AcDbMText
 10
4027.032597230915
 20
2728.150783521719
 30
0.0
 40
20.0
 41
0.0
 71
     1
 72
     1
  1
{ }
  7
Arial
 73
     1
 44
1.0
  0
LEADER
  5
729
330
1F
100
AcDbEntity
  8
Futurebuild_Text
  6
Continuous
100
AcDbLeader
  3
GENERATED_STYLE__1
 73
     0
 74
     0
 40
20.0
 76
     3
 10
3828.469699842486
 20
1850.012990582517
 30
0.0
 10
3828.469699842486
 20
2728.150783521719
 30
0.0
 10
4023.032597230915
 20
2728.150783521719
 30
0.0
340
728
213
3.999999999999545
223
0.0
233
0.0
  0
MTEXT
  5
72A
102
{ACAD_REACTORS
330
72B
102
}
330
1F
100
AcDbEntity
  8
Futurebuild_Text
  6
Continuous
100
AcDbMText
 10
3904.828051042095
 20
1215.862855009922
 30
0.0
 40
20.0
 41
0.0
 71
     1
 72
     1
  1
{ }
  7
Arial
 73
     1
 44
1.0
  0
LEADER
  5
72B
330
1F
100
AcDbEntity
  8
Futurebuild_Text
  6
Continuous
100
AcDbLeader
  3
GENERATED_STYLE__1
 73
     0
 74
     0
 40
20.0
 76
     3
 10
3512.568898649233
 20
1667.627577976374
 30
0.0
 10
3773.39538306429
 20
1215.862855009922
 30
0.0
 10
3900.828051042095
 20
1215.862855009922
 30
0.0
340
72A
213
4.0
223
0.0
233
0.0
  0
MTEXT
  5
72C
330
1F
100
AcDbEntity
  8
Futurebuild_Text
  6
Continuous
100
AcDbMText
 10
1249.11414437684
 20
35.4163262728746
 30
0.0
 40
50.00000000000004
 41
0.0
 71
     1
 72
     1
  1
{May 2007}
  7
Arial
 73
     1
 44
1.0
  0
MTEXT
  5
72D
330
1F
100
AcDbEntity
  8
Futurebuild_Text
  6
Continuous
100
AcDbMText
 10
1963.380755282141
 20
-222.8505072106303
 30
0.0
 40
40.0
 41
2156.271066438277
 71
     2
 72
     1
  1
{Construction details \U+201CCopyright\U+201D to Carter Holt Harvey Limited\PSupplied for use by building design professionals in New Zealand}
  7
Arial
 73
     1
 44
0.9212987520589628
  0
MTEXT
  5
72E
330
1F
100
AcDbEntity
  8
Futurebuild_Text
  6
Continuous
100
AcDbMText
 10
1249.11414437684
 20
297.9886049542383
 30
0.0
 40
70.0
 41
0.0
 71
     1
 72
     1
  1
{Detail F16}
  7
Arial
 73
     1
 44
1.0
  0
MTEXT
  5
72F
330
1F
100
AcDbEntity
  8
Futurebuild_Text
  6
Continuous
100
AcDbMText
 10
1249.11414437684
 20
192.5598989718137
 30
0.0
 40
49.99999999999997
 41
0.0
 71
     1
 72
     1
  1
{Cantilevers supporting load bearing walls - installation of end trimmer}
  7
Arial
 73
     1
 44
1.0
  0
MTEXT
  5
730
330
1F
100
AcDbEntity
  8
Futurebuild_Text
  6
Continuous
100
AcDbMText
 10
1249.11414437684
 20
113.9882091887092
 30
0.0
 40
50.00000000000001
 41
0.0
 71
     1
 72
     1
  1
{Scale: NTS}
  7
Arial
 73
     1
 44
1.0
  0
MTEXT
  5
731
330
1F
100
AcDbEntity
  8
Futurebuild_Text
  6
Continuous
100
AcDbMText
 10
1963.38075528214
 20
-146.564683648475
 30
0.0
 40
50.00000000000003
 41
0.0
 71
     2
 72
     1
  1
{Futurebuild hyJOIST Construction Details}
  7
Arial
 73
     1
 44
1.0
  0
MTEXT
  5
732
330
1F
100
AcDbEntity
  8
Futurebuild_Text
  6
Continuous
100
AcDbMText
 10
2809.917129018906
 20
854.429418812123
 30
0.0
 40
50.00000000000003
 41
1093.652711048482
 71
     4
 72
     1
  1
{7mm plywood or hardboard bracing nailed to wall plates or battens with 30 x 2.5 FH nails @ 150 cts}
  7
Arial
 73
     1
 44
0.936587359476419
  0
MTEXT
  5
733
330
1F
100
AcDbEntity
  8
Futurebuild_Text
  6
Continuous
100
AcDbMText
 10
4043.032597230915
 20
2723.775253560309
 30
0.0
 40
50.00000000000003
 41
1091.186842983289
 71
     4
 72
     1
  1
{Continuous wall plate or batten above and below and fixed to each hyJOIST with 2 x 75mm nails}
  7
Arial
 73
     1
 44
0.9272788580420365
  0
MTEXT
  5
734
330
1F
100
AcDbEntity
  8
Futurebuild_Text
  6
Continuous
100
AcDbMText
 10
3920.828051042095
 20
1218.322762654617
 30
0.0
 40
50.00000000000003
 41
1252.205519640663
 71
     4
 72
     1
  1
{Plywood or hardboard joined over timber cleat and nailed with minimum of 4 nails}
  7
Arial
 73
     1
 44
0.4690044882308296
  0
VIEWPORT
  5
113
330
10C
100
AcDbEntity
 67
     1
  8
0
100
AcDbViewport
 10
143.1607360839844
 20
99.59974765777588
 30
0.0
 40
343.998743097582
 41
222.017415802002
 68
     1
 69
     1
 12
143.1607360839844
 22
99.59974765777588
 13
0.0
 23
0.0
 14
0.5
 24
0.5
 15
0.5
 25
0.5
 16
0.0
 26
0.0
 36
1.0
 17
0.0
 27
0.0
 37
0.0
 42
50.0
 43
0.0
 44
0.0
 45
222.017415802002
 50
0.0
 51
0.0
 72
  1000
 90
    32800
  1

281
     0
 71
     1
 74
     0
110
0.0
120
0.0
130
0.0
111
1.0
121
0.0
131
0.0
112
0.0
122
1.0
132
0.0
 79
     0
146
0.0
  0
ENDSEC
  0
SECTION
  2
OBJECTS
  0
DICTIONARY
  5
C
330
0
100
AcDbDictionary
281
     1
  3
ACAD_COLOR
350
6B
  3
ACAD_GROUP
350
D
  3
ACAD_LAYOUT
350
1A
  3
ACAD_MATERIAL
350
6A
  3
ACAD_MLINESTYLE
350
17
  3
ACAD_PLOTSETTINGS
350
19
  3
ACAD_PLOTSTYLENAME
350
E
  3
ACAD_TABLESTYLE
350
7E
  3
ACDBHEADERROUNDTRIPXREC
350
73A
  3
AcDbVariableDictionary
350
5E
  3
DWGPROPS
350
73D
  3
WATERMARKS
350
738
  0
DICTIONARY
  5
ED
330
2
100
AcDbDictionary
280
     1
281
     1
  3
ACAD_LAYERFILTERS
360
542
  3
ACAD_LAYERSTATES
360
119
  3
ACLYDICTIONARY
360
541
  0
DICTIONARY
  5
6B
102
{ACAD_REACTORS
330
C
102
}
330
C
100
AcDbDictionary
281
     1
  0
DICTIONARY
  5
D
102
{ACAD_REACTORS
330
C
102
}
330
C
100
AcDbDictionary
281
     1
  0
DICTIONARY
  5
1A
102
{ACAD_REACTORS
330
C
102
}
330
C
100
AcDbDictionary
281
     1
  3
Layout1
350
10D
  3
Model
350
22
  0
DICTIONARY
  5
6A
102
{ACAD_REACTORS
330
C
102
}
330
C
100
AcDbDictionary
281
     1
  0
DICTIONARY
  5
17
102
{ACAD_REACTORS
330
C
102
}
330
C
100
AcDbDictionary
281
     1
  3
Standard
350
18
  0
DICTIONARY
  5
19
102
{ACAD_REACTORS
330
C
102
}
330
C
100
AcDbDictionary
281
     1
  0
ACDBDICTIONARYWDFLT
  5
E
102
{ACAD_REACTORS
330
C
102
}
330
C
100
AcDbDictionary
281
     1
  3
Normal
350
F
100
AcDbDictionaryWithDefault
340
F
  0
DICTIONARY
  5
7E
102
{ACAD_REACTORS
330
C
102
}
330
C
100
AcDbDictionary
281
     1
  3
Standard
350
7F
  0
DICTIONARY
  5
73A
102
{ACAD_REACTORS
330
C
102
}
330
C
100
AcDbDictionary
281
     1
  3
COLORDICT
350
73B
  3
MATERIALDICT
350
73C
  0
DICTIONARY
  5
5E
102
{ACAD_REACTORS
330
C
102
}
330
C
100
AcDbDictionary
281
     1
  3
CTABLESTYLE
350
84
  3
DIMASSOC
350
5F
  3
HIDETEXT
350
63
  3
PROJECTNAME
350
512
  0
XRECORD
  5
73D
102
{ACAD_REACTORS
330
C
102
}
330
C
100
AcDbXrecord
280
     1
  1
DWGPROPS COOKIE
  2

  3

  4

  6

  7

  8
Autodesk
  9

300
=
301
=
302
=
303
=
304
=
305
=
306
=
307
=
308
=
309
=
 40
0.0
 41
2453855.175959792
 42
2454246.047486771
  1

 90
        0
  0
DICTIONARY
  5
738
102
{ACAD_REACTORS
330
C
102
}
330
C
100
AcDbDictionary
281
     1
  3
AC_WATERMARK
350
739
  0
DICTIONARY
  5
542
102
{ACAD_REACTORS
330
ED
102
}
330
ED
100
AcDbDictionary
281
     1
  0
DICTIONARY
  5
119
102
{ACAD_REACTORS
330
ED
102
}
330
ED
100
AcDbDictionary
281
     1
  0
DICTIONARY
  5
541
102
{ACAD_REACTORS
330
ED
102
}
330
ED
100
AcDbDictionary
281
     1
1001
ACAD
1000
<All
  0
LAYOUT
  5
10D
102
{ACAD_REACTORS
330
1A
102
}
102
{ACAD_XDICTIONARY
360
11B
102
}
330
1A
100
AcDbPlotSettings
  1

  2
\\sbs2003\Konica 7222 PS
  4
A4
  6

 40
5.323416709899902
 41
5.365731239318848
 42
5.4080810546875
 43
5.32342529296875
 44
209.8463287353516
 45
296.9683227539062
 46
0.0
 47
0.0
 48
0.0
 49
0.0
140
0.0
141
0.0
142
1.0
143
1.0
 70
   688
 72
     1
 73
     1
 74
     5
  7

 75
    16
147
1.0
148
0.0
149
0.0
100
AcDbLayout
  1
Layout1
 70
     1
 71
     1
 10
-5.32342529296875
 20
-5.323416709899902
 11
291.6448974609375
 21
204.5229120254517
 12
0.0
 22
0.0
 32
0.0
 14
28.62791662216188
 24
19.91148309707643
 34
0.0
 15
257.6512495994568
 25
179.2033478736877
 35
0.0
146
0.0
 13
0.0
 23
0.0
 33
0.0
 16
1.0
 26
0.0
 36
0.0
 17
0.0
 27
1.0
 37
0.0
 76
     0
330
10C
331
113
1001
ACAD_PSEXT
1000
\\sbs2003\Konica 7222 PS
1000
Konica 7222 PS
1000
\\sbs2003
1000

1070
     0
  0
LAYOUT
  5
22
102
{ACAD_REACTORS
330
1A
102
}
330
1A
100
AcDbPlotSettings
  1

  2
none_device
  4
ISO_A4_(210.00_x_297.00_MM)
  6

 40
7.5
 41
20.0
 42
7.5
 43
20.0
 44
210.0
 45
297.0
 46
11.54999923706055
 47
-13.65000009536743
 48
0.0
 49
0.0
140
0.0
141
0.0
142
1.0
143
8.704084754739808
 70
 11952
 72
     1
 73
     0
 74
     0
  7

 75
     0
147
0.1148885871608098
148
0.0
149
0.0
100
AcDbLayout
  1
Model
 70
     1
 71
     0
 10
0.0
 20
0.0
 11
12.0
 21
9.0
 12
0.0
 22
0.0
 32
0.0
 14
0.0
 24
0.0
 34
0.0
 15
0.0
 25
0.0
 35
0.0
146
0.0
 13
0.0
 23
0.0
 33
0.0
 16
1.0
 26
0.0
 36
0.0
 17
0.0
 27
1.0
 37
0.0
 76
     0
330
1F
1001
ACAD_PSEXT
1000
None
1000
None
1000
Not applicable
1000
The layout will not be plotted unless a new plotter configuration name is selected.
1070
     0
  0
MLINESTYLE
  5
18
102
{ACAD_REACTORS
330
17
102
}
330
17
100
AcDbMlineStyle
  2
STANDARD
 70
     0
  3

 62
   256
 51
90.0
 52
90.0
 71
     2
 49
0.5
 62
   256
  6
BYLAYER
 49
-0.5
 62
   256
  6
BYLAYER
  0
ACDBPLACEHOLDER
  5
F
102
{ACAD_REACTORS
330
E
102
}
330
E
  0
TABLESTYLE
  5
7F
102
{ACAD_REACTORS
330
7E
102
}
330
7E
100
AcDbTableStyle
  3
Standard
 70
     0
 71
     0
 40
1.5
 41
1.5
280
     0
281
     0
  7
Standard
140
4.5
170
     2
 62
     0
 63
     7
283
     0
274
    -2
284
     1
 64
     0
275
    -2
285
     1
 65
     0
276
    -2
286
     1
 66
     0
277
    -2
287
     1
 67
     0
278
    -2
288
     1
 68
     0
279
    -2
289
     1
 69
     0
  7
Standard
140
6.0
170
     5
 62
     0
 63
     7
283
     0
274
    -2
284
     1
 64
     0
275
    -2
285
     1
 65
     0
276
    -2
286
     1
 66
     0
277
    -2
287
     1
 67
     0
278
    -2
288
     1
 68
     0
279
    -2
289
     1
 69
     0
  7
Standard
140
4.5
170
     5
 62
     0
 63
     7
283
     0
274
    -2
284
     1
 64
     0
275
    -2
285
     1
 65
     0
276
    -2
286
     1
 66
     0
277
    -2
287
     1
 67
     0
278
    -2
288
     1
 68
     0
279
    -2
289
     1
 69
     0
  0
XRECORD
  5
73B
102
{ACAD_REACTORS
330
73A
102
}
330
73A
100
AcDbXrecord
280
     1
340
6B
  0
XRECORD
  5
73C
102
{ACAD_REACTORS
330
73A
102
}
330
73A
100
AcDbXrecord
280
     1
340
6A
  0
DICTIONARYVAR
  5
84
102
{ACAD_REACTORS
330
5E
102
}
330
5E
100
DictionaryVariables
280
     0
  1
STANDARD
  0
DICTIONARYVAR
  5
5F
102
{ACAD_REACTORS
330
5E
102
}
330
5E
100
DictionaryVariables
280
     0
  1
2
  0
DICTIONARYVAR
  5
63
102
{ACAD_REACTORS
330
5E
102
}
330
5E
100
DictionaryVariables
280
     0
  1
1
  0
DICTIONARYVAR
  5
512
102
{ACAD_REACTORS
330
5E
102
}
330
5E
100
DictionaryVariables
280
     0
  1

  0
XRECORD
  5
739
102
{ACAD_REACTORS
330
738
102
}
330
738
100
AcDbXrecord
280
     1
1000
This DWG file was created in ArchiCAD(TM)®
  0
DICTIONARY
  5
11B
330
10D
100
AcDbDictionary
280
     1
281
     1
  3
ADSK_XREC_LAYOUTTHUMBNAIL
360
11C
  0
XRECORD
  5
11C
102
{ACAD_REACTORS
330
11B
102
}
330
11B
100
AcDbXrecord
280
     1
310
28000000B40000007F00000001000800000000004C590000000000000000000000010000000000000000000000000000FFFFFF000000000000000000000000000000000000000000000000000000000000000000330000006600000099000000CC000000FF00000000330000333300006633000099330000CC330000FF3300
310
0000660000336600006666000099660000CC660000FF66000000990000339900006699000099990000CC990000FF99000000CC000033CC000066CC000099CC0000CCCC0000FFCC000000FF000033FF000066FF000099FF0000CCFF0000FFFF000000003300330033006600330099003300CC003300FF003300003333003333
310
33006633330099333300CC333300FF33330000663300336633006666330099663300CC663300FF66330000993300339933006699330099993300CC993300FF99330000CC330033CC330066CC330099CC3300CCCC3300FFCC330000FF330033FF330066FF330099FF3300CCFF3300FFFF330000006600330066006600660099
310
006600CC006600FF00660000336600333366006633660099336600CC336600FF33660000666600336666006666660099666600CC666600FF66660000996600339966006699660099996600CC996600FF99660000CC660033CC660066CC660099CC6600CCCC6600FFCC660000FF660033FF660066FF660099FF6600CCFF6600
310
FFFF660000009900330099006600990099009900CC009900FF00990000339900333399006633990099339900CC339900FF33990000669900336699006666990099669900CC669900FF66990000999900339999006699990099999900CC999900FF99990000CC990033CC990066CC990099CC9900CCCC9900FFCC990000FF99
310
0033FF990066FF990099FF9900CCFF9900FFFF99000000CC003300CC006600CC009900CC00CC00CC00FF00CC000033CC003333CC006633CC009933CC00CC33CC00FF33CC000066CC003366CC006666CC009966CC00CC66CC00FF66CC000099CC003399CC006699CC009999CC00CC99CC00FF99CC0000CCCC0033CCCC0066CC
310
CC0099CCCC00CCCCCC00FFCCCC0000FFCC0033FFCC0066FFCC0099FFCC00CCFFCC00FFFFCC000000FF003300FF006600FF009900FF00CC00FF00FF00FF000033FF003333FF006633FF009933FF00CC33FF00FF33FF000066FF003366FF006666FF009966FF00CC66FF00FF66FF000099FF003399FF006699FF009999FF00CC
310
99FF00FF99FF0000CCFF0033CCFF0066CCFF0099CCFF00CCCCFF00FFCCFF0000FFFF0033FFFF0066FFFF0099FFFF00CCFFFF00FFFFFF00000000000D0D0D001A1A1A00282828003535350043434300505050005D5D5D006B6B6B00787878008686860093939300A1A1A100AEAEAE00BBBBBB00C9C9C900D6D6D600E4E4E400
310
F1F1F100FFFFFF0000000000000000000000000000000000000000000000000000000000000000000000000000000000F5F5F5F5F5F5F5F5F5F5F5F5F5F5F5F5F5F5F5F5F5F5F5F5F5F5F5F5F5F5F5F5F5F5F5F5F5F5F5F5F5F5F5F5F5F5F5F5F5F5F5F5F5F5F5F5F5F5F5F5F5F5F5F5F5F5F5F5F5F5F5F5F5F5F5F5F5F5F5
310
F5F5F5F5F5F5F5F5F5F5F5F5F5F5F5F5F5F5F5F5F5F5F5F5F5F5F5F5F5F5F5F5F5F5F5F5F5F5F5F5F5F5F5F5F5F5F5F5F5F5F5F5F5F5F5F5F5F5F5F5F5F5F5F5F5F5F5F5F5F5F5F5F5F5F5F5F5F5F5F5F5F5F5F5F5F5F5F5F5F5F5F5F5F5F5F5F5F5F5F5F5F5E2E2E2E2E2E2E2E2E2E2E2E2E2E2E2E2E2E2E2E2E2E2E2E2E2
310
E2E2E2E2E2E2E2E2E2E2E2E2E2E2E2E2E2E2E2E2E2E2E2E2E2E2E2E2E2E2E2E2E2E2E2E2E2E2E2E2E2E2E2E2E2E2E2E2E2E2E2E2E2E2E2E2E2E2E2E2E2E2E2E2E2E2E2E2E2E2E2E2E2E2E2E2E2E2E2E2E2E2E2E2E2E2E2E2E2E2E2E2E2E2E2E2E2E2E2E2E2E2E2E2E2E2E2E2E2E2E2E2E2E2E2E2E2E2E2E2E2E2E2E2E2E2E2
310
E2E2E2E2E2E2E2E2E2E2E2E2E2E2E2E2E2E2E2E2E2E2E2E2E2F5F5F5E2E2E2E2E2E2E2E2E2E2E2E2E2E2E2E2E2E2E2E2E2E2E2E2E2E2E2E2E2E2E2E2E2E2E2E2E2E2E2E2E2E2E2E2E2E2E2E2E2E2E2E2E2E2E2E2E2E2E2E2E2E2E2E2E2E2E2E2E2E2E2E2E2E2E2E2E2E2E2E2E2E2E2E2E2E2E2E2E2E2E2E2E2E2E2E2E2E2E2
310
E2E2E2E2E2E2E2E2E2E2E2E2E2E2E2E2E2E2E2E2E2E2E2E2E2E2E2E2E2E2E2E2E2E2E2E2E2E2E2E2E2E2E2E2E2E2E2E2E2E2E2E2E2E2E2E2E2E2E2E2E2E2E2E2E2E2E2E2E2E2E2E2E2E2E2E2E2E2F5F5F5E2E2F5F5F5F5F5F5F5F5E2E2E2E2E2E2E2E2E2F5F5F5F5F5F5F5F5F5F5F5F5F5F5F5F5E2E2E2E2E2E2E2E2E2F5F5
310
F5F5F5F5F5F5F5F5F5F5F5F5F5F5E2E2E2E2E2E2E2E2F5F5F5F5F5F5F5F5F5F5F5F5F5F5F5F5E2E2E2E2E2E2E2E2E2F5F5F5F5F5F5F5F5F5F5F5F5F5F5F5F5E2E2E2E2E2E2E2E2F5F5F5F5F5F5F5F5F5F5F5F5F5F5F5F5E2E2E2E2E2E2E2E2E2F5F5F5F5F5F5F5F5F5F5F5F5F5F5F5F5E2E2E2E2E2E2E2E2E2F5F5F5F5F5F5
310
F5F5E2E2F5F5F5E2E2F5E2E2E2E2E2E2E2E2E2E2E2E2E2E2E2E2E2E2E2E2E2E2E2E2E2E2E2E2E2E2E2E2E2E2E2E2E2E2E2E2E2E2E2E2E2E2E2E2E2E2E2E2E2E2E2E2E2E2E2E2E2E2E2E2E2E2E2E2E2E2E2E2E2E2E2E2E2E2E2E2E2E2E2E2E2E2E2E2E2E2E2E2E2E2E2E2E2E2E2E2E2E2E2E2E2E2E2E2E2E2E2E2E2E2E2E2E2
310
E2E2E2E2E2E2E2E2E2E2E2E2E2E2E2E2E2E2E2E2E2E2E2E2E2E2E2E2E2E2E2E2E2E2E2E2E2E2E2E2E2E2E2E2E2E2E2E2E2E2E2E2E2E2F5E2E2F5F5F5E2E2F5E2E2E2E2E2E2E2E2E2E2E2E2E2E2E2E2E2E2E2E2E2E2E2E2E2E2E2E2E2E2E2E2E2E2E2E2E2E2E2E2E2E2E2E2E2E2E2E2E2E2E2E2E2E2E2E2E2E2E2E2E2E2E2E2
310
E2E2E2E2E2E2E2E2E2E2E2E2E2E2E2E2E2E2E2E2E2E2E2E2E2E2E2E2E2E2E2E2E2E2E2E2E2E2E2E2E2E2E2E2E2E2E2E2E2E2E2E2E2E2E2E2E2E2E2E2E2E2E2E2E2E2E2E2E2E2E2E2E2E2E2E2E2E2E2E2E2E2E2E2E2E2E2E2E2E2E2E2E2E2E2E2E2E2E2E2E2E2E2E2E2E2E2F5E2E2F5F5F5E2E2F5E2E2E2E2E2E2E2E2E2E2E2
310
E2E2E2E2E2E2E2E2E2E2E2E2E2E2E2E2E2E2E2E2E2E2E2E2E2E2E2E2E2E2E2E2E2E2E2E2E2E2E2E2E2E2E2E2E2E2E2E2E2E2E2E2E2E2E2E2E2E2E2E2E2E2E2E2E2E2E2E2E2E2E2E2E2E2E2E2E2E2E2E2E2E2E2E2E2E2E2E2E2E2E2E2E2E2E2E2E2E2E2E2E2E2E2E2E2E2E2E2E2E2E2E2E2E2E2E2E2E2E2E2E2E2E2E2E2E2E2
310
E2E2E2E2E2E2E2E2E2E2E2E2E2E2E2E2E2E2E2E2E2E2E2E2E2E2E2E2E2E2E2E2E2F5E2E2F5F5F5E2E2F5E2E2E2E2E2E2E2E2E2E2E2E2E2E2E2E2E2E2E2E2E2E2E2E2E2E2E2E2E2E2E2E2E2E2E2E2E2E2E2E2E2E2E2E2E2E2E2E2E2E2E2E2E2E2E2E2E2E2E2E2E2E2E2E2E2E2E2E2E2E2E2E2E2E2E2E2E2E2E2E2E2E2E2E2E2
310
E2E2E2E2E2E2E2E2E2E2E2E2E2E2E2E2E2E2E2E2E2E2E2E2E2E2E2E2E2E2E2E2E2E2E2E2E2E2E2E2E2E2E2E2E2E2E2E2E2E2E2E2E2E2E2E2E2E2E2E2E2E2E2E2E2E2E2E2E2E2E2E2E2E2E2E2E2E2E2E2E2E2E2E2E2E2F5E2E2F5F5F5E2E2F5E2E2E2E2E2E2E2E2E2E2E2E2E2E2E2E2E2E2E2E2E2E2E2E2E2E2E2E2E2E2E2E2
310
E2E2E2E2E2E2E2E2E2E2E2E2E2E2E2E2E2E2E2E2E2E2E2E2E2E2E2E2E2E2E2E2E2E2E2E2E2E2E2E2E2E2E2E2E2E2E2E2E2E2E2E2E2E2E2E2E2E2E2E2E2E2E2E2E2E2E2E2E2E2E2E2E2E2E2E2E2E2E2E2E2E2E2E2E2E2E2E2E2E2E2E2E2E2E2E2E2E2E2E2E2E2E2E2E2E2E2E2E2E2E2E2E2E2E2E2E2E2E2E2E2E2E2E2E2E2E2
310
E2E2E2E2E2E2E2E2E2E2E2E2F5E2E2F5F5F5E2E2F5E2E2E2E2E2E2E2E2E2E2E2E2E2E2E2E2E2E2E2E2E2E2E2E2E2E2E2E2E2E2E2E2E2E2E2E2E2E2E2E2E2E2E2E2E2E2E2E2E2E2E2E2E2E2E2E2E2E2E2E2E2E2E2E2E2E2E2E2E2E2E2E2E2E2E2E2E2E2E2E2E2E2E2E2E2E2E2E2E2E2E2E2E2E2E2E2E2E2E2E2E2E2E2E2E2E2
310
E2E2E2E2E2E2E2E2E2E2E2E2E2E2E2E2E2E2E2E2E2E2E2E2E2E2E2E2E2E2E2E2E2E2E2E2E2E2E2E2E2E2E2E2E2E2E2E2E2E2E2E2E2E2E2E2E2E2E2E2E2E2E2E2E2F5E2E2F5F5F5E2E2F5E2E2E2E2E2E2E2E2E2E2E2E2E2E2E2E2E2E2E2E2E2E2E2E2E2E2E2E2E2E2E2E2E2E2E2E2E2E2E2E2E2E2E2E2E2E2E2E2E2E2E2E2E2
310
E2E2E2E2E2E2E2E2E2E2E2E2E2E2E2E2E2E2E2E2E2E2E2E2E2E2E2E2E2E2E2E2E2E2E2E2E2E2E2E2E2E2E2E2E2E2E2E2E2E2E2E2E2E2E2E2E2E2E2E2E2E2E2E2E2E2E2E2E2E2E2E2E2E2E2E2E2E2E2E2E2E2E2E2E2E2E2E2E2E2E2E2E2E2E2E2E2E2E2E2E2E2E2E2E2E2E2E2E2E2E2E2E2E2E2E2E2E2F5E2E2F5F5F5E2E2E2
310
E2E2E2E2E2E2E2E2E2E2E2E2E2E2E2E2E2E2E2E2E2E2E2E2E2E2E2E2E2E2E2E2E2E2E2E2E2E2E2E2E2E2E2E2E2E2E2E2E2E2E2E2E2E2E2E2E2E2E2E2E2E2E2E2E2E2E2E2E2E2E2E2E2E2E2E2E2E2E2E2E2E2E2E2E2E2E2E2E2E2E2E2E2E2E2E2E2E2E2E2E2E2E2E2E2E2E2E2E2E2E2E2E2E2E2E2E2E2E2E2E2E2E2E2E2E2E2
310
E2E2E2E2E2E2E2E2E2E2E2E2E2E2E2E2E2E2E2E2E2E2E2E2E2E2E2E2E2E2E2E2E2E2E2E2E2E2E2E2E2E2E2E2E2E2E2F5F5F5E2E2E2E2E2E2E2E2E2E2E2E2E2E2E2E2E2E2E2E2E2E2E2E2E2E2E2E2E2E2E2E2E2E2E2E2E2E2E2E2E2E2E2E2E2E2E2E2E2E2E2E2E2E2E2E2E2E2E2E2E2E2E2E2E2E2E2E2E2E2E2E2E2E2E2E2E2
310
E2E2E2E2E2E2E2E2E2E2E2E2E2E2E2E2E2E2E2E2E2E2E2E2E2E2E2E2E2E2E2E2E2E2E2E2E2E2E2E2E2E2E2E2E2E2E2E2E2E2E2E2E2E2E2E2E2E2E2E2E2E2E2E2E2E2E2E2E2E2E2E2E2E2E2E2E2E2E2E2E2E2E2E2E2E2E2E2E2E2E2E2E2E2E2E2E2E2E2E2F5F5F5E2E2E2E2E2E2E2E2E2E2E2E2E2E2E2E2E2E2E2E2E2E2E2E2
310
E2E2E2E2E2E2E2E2E2E2E2E2E2E2E2E2E2E2E2E2E2E2E2E2E2E2E2E2E2E2E2E2E2E2E2E2E2E2E2E2E2E2E2E2E2E2E2E2E2E2E2E2E2E2E2E2E2E2E2E2E2E2E2E2E2E2E2E2E2E2E2E2E2E2E2E2E2E2E2E2E2E2E2E2E2E2E2E2E2E2E2E2E2E2E2E2E2E2E2E2E2E2E2E2E2E2E2E2E2E2E2E2E2E2E2E2E2E2E2E2E2E2E2E2E2E2E2
310
E2E2E2E2E2E2E2E2E2E2E2E2E2E2E2E2E2E2E2E2E2E2E2E2E2E2F5F5F5E2E2E2E2E2E2E2E2E2E2E2E2E2E2E2E2E2E2E2E2E2E2E2E2E2E2E2E2E2E2E2E2E2E2E2E2E2E2E2E2E2E2E2E2E2E2E2E2E2E2E2E2E2E2E2E2E2E2E2E2E2E2E2E2E2E2E2E2E2E2E2E2E2E2E2E2E2E2E2E2E2E2E2E2E2E2E2E2E2E2E2E2E2E2E2E2E2E2
310
E2E2E2E2E2E2E2E2E2E2E2E2E2E2E2E2E2E2E2E2E2E2E2E2E2E2E2E2E2E2E2E2E2E2E2E2E2E2E2E2E2E2E2E2E2E2E2E2E2E2E2E2E2E2E2E2E2E2E2E2E2E2E2E2E2E2E2E2E2E2E2E2E2E2E2E2E2E2E2F5F5F5E2E2E2E2E2E2E2E2E2E2E2E2E2E2E2E2E2E2E2E2F5F5F5F5F5F5F5F5F5F5F5F5F5F5F5F5F5F5F5F5F5F5F5F5F5
310
F5F5F5F5F5F5F5F5F5F5F5F5F5F5F5F5F5F5F5F5F5F5F5F5F5F5F5F5F5F5F5F5F5F5F5F5F5F5F5F5F5F5F5F5F5F5F5F5F5F5F5F5F5F5F5F5F5F5F5F5F5F5F5F5F5F5F5F5F5F5F5F5F5F5F5F5F5F5F5F5F5F5F5F5F5F5F5F5F5F5F5F5F5F5F5F5F5F5F5F5F5F5F5F5F5F5F5F5F5F5F5F5E2E2E2E2E2E2E2E2E2E2E2E2E2E2E2
310
E2E2E2E2E2F5F5F5E2E2E2E2E2E2E2E2E2E2E2E2E2E2E2E2E2E2E2E2F5E2E2E2E2E2E2E2E2E2E2E2E2E2E2E2E2E2E2E2E2E2E2E2E2E2E2E2E2E2E2E2E2E2E2E2E2E2E2E2E2E2E2E2E2E2E2E2E2E2E2E2E2E2E2E2E2E2E2E2E2E2E2E2E2E2E2E2E2E2E2E2E2E2E2E2E2E2E2E2E2E2E2E2E2E2E2E2E2E2E2E2E2E2E2E2E2E2E2
310
E2E2E2E2E2E2E2E2E2E2E2E2E2E2E2E2E2E2E2E2E2E2E2E2E2E2E2E2E2E2E2E2E2E2E2E2E2F5E2E2E2E2E2E2E2E2E2E2E2E2E2E2E2E2E2E2E2E2F5F5F5E2E2E2E2E2E2E2E2E2E2E2E2E2E2E2E2E2E2E2E2F5E2E2E2E2E2E2E2E2E2E2E2E2E2E2E2E2E2E2E2E2E2E2E2E2E2E2E2E2E2E2E2E2E2E2E2E2E2E2E2E2E2E2E2E2E2
310
E2E2E2E2E2E2E2E2E2E2E2E2E2E2E2E2E2E2E2E2E2E2E2E2E2E2E2E2E2E2E2E2E2E2E2E2E2E2E2E2E2E2E2E2E2E2E2E2E2E2E2E2E2E2E2E2E2E2E2E2E2E2E2E2E2E2E2E2E2E2E2E2E2E2E2E2E2E2E2E2E2E2E2E2E2E2E2E2E2E2F5E2E2E2E2E2E2E2E2E2E2E2E2E2E2E2E2E2E2E2E2F5F5F5E2E2E2E2E2E2E2E2E2E2E2E2E2
310
E2E2E2E2E2E2E2F5E2E2E2E2E2E2E2E2E2E2E2E2E2E2E2E2E2E2E2E2E2E2E2E2E2E2E2E2E2E2E2E2E2E2E2E2E2E2E2E2E2E2E2E2E2E2E2E2E2E2E2E2E2E2E2E2E2E2E2E2E2E2E2E2E2E2E2E2E2E2E2E2E2E2E2E2E2E2E2E2E2E2E2E2E2E2E2E2E2E2E2E2E2E2E2E2E2E2E2E2E2E2E2E2E2E2E2E2E2E2E2E2E2E2E2E2E2E2E2
310
E2E2E2E2E2E2E2E2E2E2E2E2E2E2E2E2F5E2E2E2E2E2E2E2E2E2E2E2E2E2E2E2E2E2E2E2E2F5F5F5E2E2E2E2E2E2E2E2E2E2E2E2E2E2E2E2E2E2E2E2F5E2E2E2E2E2E2E2E2E2E2E2E2E2E2E2E2E2E2E2E2E2E2E2E2E2E2E2E2E2E2E2E2E2E2E2E2E2E2E2E2E2E2E2E2E2E2E2E2E2E2E2E2E2E2E2E2E2E2E2E2E2E2E2E2E2E2
310
E2E2E2E2E2E2E2E2E2E2E2E2E2E2E2E2E2E2E2E2E2E2E2E2E2E2E2E2E2E2E2E2E2E2E2E2E2E2E2E2E2E2E2E2E2E2E2E2E2E2E2E2E2E2E2E2E2E2E2E2E2E2E2E2E2E2E2E2E2F5E2E2E2E2E2E2E2E2E2E2E2E2E2E2E2E2E2E2E2E2F5F5F5E2E2F5E2E2E2E2E2E2E2E2E2E2E2E2E2E2E2E2E2F5E2E2E2E2E2E2E2E2E2E2E2E2E2
310
E2E2E2E2E2E2E2E2E2E2E2E2E2E2E2E2E2E2E2E2E2E2E2E2E2E2E2E2E2E2E2E2E2E2E2E2E2E2E2E2E2E2E2E2E2E2E2E2E2E2E2E2E2E2E2E2E2E2E2E2E2E2E2E2E2E2E2E2E2E2E2E2E2E2E2E2E2E2E2E2E2E2E2E2E2E2E2E2E2E2E2E2E2E2E2E2E2E2E2E2E2E2E2E2E2E2E2E2E2E2E2E2E2E2E2E2E2E2E2E2E2E2F5E2E2E2E2
310
E2E2E2E2E2E2E2E2E2E2E2E2E2F5E2E2F5F5F5E2E2F5E2E2E2E2E2E2E2E2E2E2E2E2E2E2E2E2E2F5E2E2E2E2E2E2E2E2E2E2E2E2E2E2E2E2E2E2E2E2E2E2E2E2E2E2E2E2E2E2E2E2E2E2E2E2E2E2E2E2E2E2E2E2E2E2E2E2E2E2E2E2E2E2E2E2E2E2E2E2E2E2E2E2E2E2E2E2E2E2E2E2E2E2E2E2E2E2E2E2E2E2E2E2E2E2E2
310
E2E2E2E2E2E2E2E2E2E2E2E2E2E2E2E2E2E2E2E2E2E2E2E2E2E2E2E2E2E2E2E2E2E2E2E2E2E2E2E2E2E2E2E2E2E2E2E2F5E2E2E2E2E2E2E2E2E2E2E2E2E2E2E2E2E2F5E2E2F5F5F5E2E2F5E2E2E2E2E2E2E2E2E2E2E2E2E2E2E2E2E2F5E2E2E2E2E2E2E2E2E2E2E2E2E2E2E2E2E2E2E2E2E2E2E2E2E2E2E2E2E2E2E2E2E2E2
310
E2E2E2E2E2E2E2E2E2E2E2E2E2E2E2E2E2E2E2E2E2E2E2E2E2E2E2E2E2E2E2E2E2E2E2E2E2E2E2E2E2E2E2E2E2E2E2E2E2E2E2E2E2E2E2E2E2E2E2E2E2E2E2E2E2E2E2E2E2E2E2E2E2E2E2E2E2E2E2E2E2E2E2E2E2E2E2E2E2E2E2E2E2E2E2E2E2E2E2E2E2F5E2E2E2E2E2E2E2E2E2E2E2E2E2E2E2E2E2F5E2E2F5F5F5E2E2
310
F5E2E2E2E2E2E2E2E2E2E2E2E2E2E2E2E2E2F5E2E2E2E2E2E2E2E2E2E2E2E2E2E2E2E2E2E2E2E2E2E2E2E2E2E2E2E2E2E2E2E2E2E2E2E2E2E2E2E2E2E2E2E2E2E2E2E2E2E2E2E2E2E2E2E2E2E2E2E2E2E2E2E2E2E2E2E2E2E2E2E2E2E2E2E2E2E2E2E2E2E2E2E2E2E2E2E2E2E2E2E2E2E2E2E2E2E2E2E2E2E2E2E2E2E2E2E2
310
E2E2E2E2E2E2E2E2E2E2E2E2E2E2E2E2E2E2E2E2E2E2E2E2E2E2E2F5E2E2E2E2E2E2E2E2E2E2E2E2E2E2E2E2E2F5E2E2F5F5F5E2E2F5E2E2E2E2E2E2E2E2E2E2E2E2E2E2E2E2E2F5E2E2E2E2E2E2E2E2E2E2E2E2E2E2E2E2E2E2E2E2E2E2E2E2E2E2E2E2E2E2E2E2E2E2E2E2E2E2E2E2E2E2E2E2E2E2E2E2E2E2E2E2E2E2E2
310
E2E2E2E2E2E2E2E2E2E2E2E2E2E2E2E2E2E2E2E2E2E2E2E2E2E2E2E2E2E2E2E2E2E2E2E2E2E2E2E2E2E2E2E2E2E2E2E2E2E2E2E2E2E2E2E2E2E2E2E2E2E2E2E2E2E2E2E2E2E2E2E2E2E2E2E2E2E2E2E2F5E2E2E2E2E2E2E2E2E2E2E2E2E2E2E2E2E2F5E2E2F5F5F5E2E2F5E2E2E2E2E2E2E2E2E2E2E2E2E2E2E2E2E2F5E2E2
310
E2E2E2E2E2E2E2E2E2E2E2E2E2E2E2E2E2E2E2E2E2E2E2E2E2E2E2E2E2E2E2E2E2E2E2E2E2E2E2E2E2E2E2E2E2E2E2E2E2E2E2E2E2E2E2E2E2E2E2E2E2E2E2E2E2E2E2E2E2E2E2E2E2E2E2E2E2E2E2E2E2E2E2E2E2E2E2E2E2E2E2E2E2E2E2E2E2E2E2E2E2E2E2E2E2E2E2E2E2E2E2E2E2E2E2E2E2E2E2E2E2E2E2E2E2E2E2
310
E2E2E2E2E2E2F5E2E2E2E2E2E2E2E2E2E2E2E2E2E2E2E2E2F5E2E2F5F5F5E2E2F5E2E2E2E2E2E2E2E2E2E2E2E2E2E2E2E2E2F5E2E2E2E2E2E2E2E2E2E2E2E2E2E2E2E2E2E2E2E2E2E2E2E2E2E2E2E2E2E2E2E2E2E2E2E2E2E2E2E2E2E2E2E2E2E2E2E2E2E2E2E2E2E2E2E2E2E2E2E2E2E2E2E2E2E2E2E2E2E2E2E2E2E2E2E2
310
E2E2E2E2E2E2E2E2E2E2E2E2E2E2E2E2E2E2E2E2E2E2E2E2E2E2E2E2E2E2E2E2E2E2E2E2E2E2E2E2E2E2E2E2E2E2E2E2E2E2E2E2E2E2E2E2E2E2E2F5E2E2E2E2E2E2E2E2E2E2E2E2E2E2E2E2E2F5E2E2F5F5F5E2E2F5E2E2E2E2E2E2E2E2E2E2E2E2E2E2E2E2E2F5E2E2E2E2E2E2E2E2E2E2E2E2E2E2E2E2E2E2E2E2E2E2E2
310
E2E2E2E2E2E2E2E2E2E2E2E2E2E2E2E2E2E2E2E2E2E2E2E2E2E2E2E2E2E2E2E2E2E2E2E2E2E2E2E2E2E2E2E2E2E2E2E2E2E2E2E2E2E2E2E2E2E2E2E2E2E2E2E2E2E2E2E2E2E2E2E2E2E2E2E2E2E2E2E2E2E2E2E2E2E2E2E2E2E2E2E2E2E2E2E2E2E2E2E2E2E2E2E2E2E2E2E2E2E2E2E2F5E2E2E2E2E2E2E2E2E2E2E2E2E2E2
310
E2E2E2F5E2E2F5F5F5E2E2F5E2E2E2E2E2E2E2E2E2E2E2E2E2E2E2E2E2F5E2E2E2E2E2E2E2E2E2E2E2E2E2E2E2E2E2E2E2E2E2E2E2E2E2E2E2E2E2E2E2E2E2E2E2E2E2E2E2E2E2E2E2E2E2E2E2E2E2E2E2E2E2E2E2E2E2E2E2E2E2E2E2E2E2E2E2E2E2E2E2E2E2E2E2E2E2E2E2E2E2E2E2E2E2E2E2E2E2E2E2E2E2E2E2E2E2
310
E2E2E2E2E2E2E2E2E2E2E2E2E2E2E2E2E2E2E2E2E2E2E2E2E2E2E2E2E2E2E2E2E2E2E2E2E2E2F5E2E2E2E2E2E2E2E2E2E2E2E2E2E2E2E2E2F5E2E2F5F5F5E2E2F5E2E2E2E2E2E2E2E2E2E2E2E2E2E2E2E2E2F5E2E2E2E2E2E2E2E2E2E2E2E2E2E2E2E2E2E2E2E2E2E2E2E2E2E2E2E2E2E2E2E2E2E2E2E2E2E2E2E2E2E2E2E2
310
E2E2E2E2E2E2E2E2E2E2E2E2E2E2E2E2E2E2E2E2E2E2E2E2E2E2E2E2E2E2E2E2E2E2E2E2E2E2E2E2E2E2E2E2E2E2E2E2E2E2E2E2E2E2E2E2E2E2E2E2E2E2E2E2E2E2E2E2E2E2E2E2E2E2E2E2E2E2E2E2E2E2E2E2E2E2E2E2E2E2E2F5E2E2E2E2E2E2E2E2E2E2E2E2E2E2E2E2E2F5E2E2F5F5F5E2E2F5E2E2E2E2E2E2E2E2E2
310
E2E2E2E2E2E2E2E2F5E2E2E2E2E2E2E2E2E2E2E2E2E2E2E2E2E2E2E2E2E2E2E2E2E2E2E2E2E2E2E2E2E2E2E2E2E2E2E2E2E2E2E2E2E2E2E2E2E2E2E2E2E2E2E2E2E2E2E2E2E2E2E2E2E2E2E2E2E2E2E2E2E2E2E2E2E2E2E2E2E2E2E2E2E2E2E2E2E2E2E2E2E2E2E2E2E2E2E2E2E2E2E2E2E2E2E2E2E2E2E2E2E2E2E2E2E2E2
310
E2E2E2E2E2E2E2E2E2E2E2E2E2E2E2E2E2F5E2E2E2E2E2E2E2E2E2E2E2E2E2E2E2E2E2F5E2E2F5F5F5E2E2F5E2E2E2E2E2E2E2E2E2E2E2E2E2E2E2E2E2F5E2E2E2E2E2E2E2E2E2E2E2E2E2E2E2E2E2E2E2E2E2E2E2E2E2E2E2E2E2E2E2E2E2E2E2E2E2E2E2E2E2E2E2E2E2E2E2E2E2E2E2E2E2E2E2E2E2E2E2E2E2E2E2E2E2
310
E2E2E2E2E2E2E2E2E2E2E2E2E2E2E2E2E2E2E2E2E2E2E2E2E2E2E2E2E2E2E2E2E2E2E2E2E2E2E2E2E2E2E2E2E2E2E2E2E2E2E2E2E2E2E2E2E2E2E2E2E2E2E2E2E2E2E2E2E2E2F5E2E2E2E2E2E2E2E2E2E2E2E2E2E2E2E2E2F5E2E2F5F5F5E2E2F5E2E2E2E2E2E2E2E2E2E2E2E2E2E2E2E2E2F5E2E2E2E2E2E2E2E2E2E2E2E2
310
E2E2E2E2E2E2E2E2E2E2E2E2E2E2E2E2E2E2E2E2E2E2E2E2E2E2E2E2E2E2E2E2E2E2E2E2E2E2E2E2E2E2E2E2E2E2E2E2E2E2E2E2E2E2E2E2E2E2E2E2E2E2E2E2E2E2E2E2E2E2E2E2E2E2E2E2E2E2E2E2E2E2E2E2E2E2E2E2E2E2E2E2E2E2E2E2E2E2E2E2E2E2E2E2E2E2E2E2E2E2E2E2E2E2E2E2E2E2E2E2E2E2E2F5E2E2E2
310
E2E2E2E2E2E2E2E2E2E2E2E2E2E2F5E2E2F5F5F5E2E2F5E2E2E2E2E2E2E2E2E2E2E2E2E2E2E2E2E2F5E2E2E2E2E2E2E2E2E2E2E2E2E2E2E2E2E2E2E2E2E2E2E2E2E2E2E2E2E2E2E2E2E2E2E2E2E2E2E2E2E2E2E2E2E2E2E2E2E2E2E2E2E2E2E2E2E2E2E2E2E2E2E2E2E2E2E2E2E2E2E2E2E2E2E2E2E2E2E2E2E2E2E2E2E2E2
310
E2E2E2E2E2E2E2E2E2E2E2E2E2E2E2E2E2E2E2E2E2E2E2E2E2E2E2E2E2E2E2E2E2E2E2E2E2E2E2E2E2E2E2E2E2E2E2E2E2F5E2E2E2E2E2E2E2E2E2E2E2E2E2E2E2E2E2F5E2E2F5F5F5E2E2F5E2E2E2E2E2E2E2E2E2E2E2E2E2E2E2E2E2F5E2E2E2E2E2E2E2E2E2E2E2E2E2E2E2E2E2E2E2E2E2E2E2E2E2E2E2E2E2E2E2E2E2
310
E2E2E2E2E2E2E2E2E2E2E2E2E2E2E2E2E2E2E2E2E2E2E2E2E2E2E2E2E2E2E2E2E2E2E2E2E2E2E2E2E2E2E2E2E2E2E2E2E2E2E2E2E2E2E2E2E2E2E2E2E2E2E2E2E2E2E2E2E2E2E2E2E2E2E2E2E2E2E2E2E2E2E2E2E2E2E2E2E2E2E2E2E2E2E2E2E2E2E2E2E2E2F5E2E2E2E2E2E2E2E2E2E2E2E2E2E2E2E2E2F5E2E2F5F5F5E2
310
E2E2E2E2E2E2E2E2E2E2E2E2E2E2E2E2E2E2E2F5E2E2E2E2E2E2E2E2E2E2E2E2E2E2E2E2E2E2E2E2E2E2E2E2E2E2E2E2E2E2E2E2E2E2E2E2E2E2E2E2E2E2E2E2E2E2E2E2E2E2E2E2E2E2E2E2E2E2E2E2E2E2E2E2E2E2E2E2E2E2E2E2E2E2E2E2E2E2E2E2E2E2E2E2E2E2E2E2E2E2E2E2E2E2E2E2E2E2E2E2E2E2E2E2E2E2E2
310
E2E2E2E2E2E2E2E2E2E2E2E2E2E2E2E2E2E2E2E2E2E2E2E2E2E2E2E2F5E2E2E2E2E2E2E2E2E2E2E2E2E2E2E2E2E2E2E2E2F5F5F5E2E2E2E2E2E2E2E2E2E2E2E2E2E2E2E2E2E2E2E2F5E2E2E2E2E2E2E2E2E2E2E2E2E2E2E2E2E2E2E2E2E2E2E2E2E2E2E2E2E2E2E2E2E2E2E2E2E2E2E2E2E2E2E2E2E2E2E2E2E2E2E2E2E2E2
310
E2E2E2E2E2E2E2E2E2E2E2E2E2E2E2E2E2E2E2E2E2E2E2E2E2E2E2E2E2E2E2E2E2E2E2E2E2E2E2E2E2E2E2E2E2E2E2E2E2E2E2E2E2E2E2E2E2E2E2E2E2E2E2E2E2E2E2E2E2E2E2E2E2E2E2E2E2E2E2E2E2F5E2E2E2E2E2E2E2E2E2E2E2E2E2E2E2E2E2E2E2E2F5F5F5E2E2E2E2E2E2E2E2E2E2E2E2E2E2E2E2E2E2E2E2F5E2
310
E2E2E2E2E2E2E2E2E2E2E2E2E2E2E2E2E2E2E2E2E2E2E2E2E2E2E2E2E2E2E2E2E2E2E2E2E2E2E2E2E2E2E2E2E2E2E2E2E2E2E2E2E2E2E2E2E2E2E2E2E2E2E2E2E2E2E2E2E2E2E2E2E2E2E2E2E2E2E2E2E2E2E2E2E2E2E2E2E2E2E2E2E2E2E2E2E2E2E2E2E2E2E2E2E2E2E2E2E2E2E2E2E2E2E2E2E2E2E2E2E2E2E2E2E2E2E2
310
E2E2E2E2E2E2E2F5E2E2E2E2E2E2E2E2E2E2E2E2E2E2E2E2E2E2E2E2F5F5F5E2E2E2E2E2E2E2E2E2E2E2E2E2E2E2E2E2E2E2E2F5E2E2E2E2E2E2E2E2E2E2E2E2E2E2E2E2E2E2E2E2E2E2E2E2E2E2E2E2E2E2E2E2E2E2E2E2E2E2E2E2E2E2E2E2E2E2E2E2E2E2E2E2E2E2E2E2E2E2E2E2E2E2E2E2E2E2E2E2E2E2E2E2E2E2E2
310
E2E2E2E2E2E2E2E2E2E2E2E2E2E2E2E2E2E2E2E2E2E2E2E2E2E2E2E2E2E2E2E2E2E2E2E2E2E2E2E2E2E2E2E2E2E2E2E2E2E2E2E2E2E2E2E2E2E2E2E2F5E2E2E2E2E2E2E2E2E2E2E2E2E2E2E2E2E2E2E2E2F5F5F5E2E2E2E2E2E2E2E2E2E2E2E2E2E2E2E2E2E2E2E2F5E2E2E2E2E2E2E2E2E2E2E2E2E2E2E2E2E2E2E2E2E2E2
310
E2E2E2E2E2E2E2E2E2E2E2E2E2E2E2E2E2E2E2E2E2E2E2E2E2E2E2E2E2E2E2E2E2E2E2E2E2E2E2E2E2E2E2E2E2E2E2E2E2E2E2E2E2E2E2E2E2E2E2E2E2E2E2E2E2E2E2E2E2E2E2E2E2E2E2E2E2E2E2E2E2E2E2E2E2E2E2E2E2E2E2E2E2E2E2E2E2E2E2E2E2E2E2E2E2E2E2E2E2E2E2E2E2F5E2E2E2E2E2E2E2E2E2E2E2E2E2
310
E2E2E2E2E2E2E2F5F5F5E2E2E2E2E2E2E2E2E2E2E2E2E2E2E2E2E2E2E2E2F5E2E2E2E2E2E2E2E2E2E2E2E2E2E2E2E2E2E2E2E2E2E2E2E2E2E2E2E2E2E2E2E2E2E2E2E2E2E2E2E2E2E2E2E2E2E2E2E2E2E2E2E2E2E2E2E2E2E2E2E2E2E2E2E2E2E2E2E2E2E2E2E2E2E2E2E2E2E2E2E2E2E2E2E2E2E2E2E2E2E2E2E2E2E2E2E2
310
E2E2E2E2E2E2E2E2E2E2E2E2E2E2E2E2E2E2E2E2E2E2E2E2E2E2E2E2E2E2E2E2E2E2E2E2E2E2E2F5E2E2E2E2E2E2E2E2E2E2E2E2E2E2E2E2E2E2E2E2F5F5F5E2E2E2E2E2E2E2E2E2E2E2E2E2E2E2E2E2E2E2E2F5E2E2E2E2E2E2E2E2E2E2E2E2E2E2E2E2E2E2E2E2E2E2E2E2E2E2E2E2E2E2E2E2E2E2E2E2E2E2E2E2E2E2E2
310
E2E2E2E2E2E2E2E2E2E2E2E2E2E2E2E2E2E2E2E2E2E2E2E2E2E2E2E2E2E2E2E2E2E2E2E2E2E2E2E2E2E2E2E2E2E2E2E2E2E2E2E2E2E2E2E2E2E2E2E2E2E2E2E2E2E2E2E2E2E2E2E2E2E2E2E2E2E2E2E2E2E2E2E2E2E2E2E2E2E2E2E2F5E2E2E2E2E2E2E2E2E2E2E2E2E2E2E2E2E2E2E2E2F5F5F5E2E2E2E2E2E2E2E2E2E2E2
310
E2E2E2E2E2E2E2E2E2F5E2E2E2E2E2E2E2E2E2E2E2E2E2E2E2E2E2E2E2E2E2E2E2E2E2E2E2E2E2E2E2E2E2E2E2E2E2E2E2E2E2E2E2E2E2E2E2E2E2E2E2E2E2E2E2E2E2E2E2E2E2E2E2E2E2E2E2E2E2E2E2E2E2E2E2E2E2E2E2E2E2E2E2E2E2E2E2E2E2E2E2E2E2E2E2E2E2E2E2E2E2E2E2E2E2E2E2E2E2E2E2E2E2E2E2E2E2
310
E2E2E2E2E2E2E2E2E2E2E2E2E2E2E2E2E2E2F5E2E2E2E2E2E2E2E2E2E2E2E2E2E2E2E2E2E2E2E2F5F5F5E2E2E2E2E2E2E2E2E2E2E2E2E2E2E2E2E2E2E2E2F5E2E2E2E2E2E2E2E2E2E2E2E2E2E2E2E2E2E2E2E2E2E2E2E2E2E2E2E2E2E2E2E2E2E2E2E2E2E2E2E2E2E2E2E2E2E2E2E2E2E2E2E2E2E2E2E2E2E2E2E2E2E2E2E2
310
E2E2E2E2E2E2E2E2E2E2E2E2E2E2E2E2E2E2E2E2E2E2E2E2E2E2E2E2E2E2E2E2E2E2E2E2E2E2E2E2E2E2E2E2E2E2E2E2E2E2E2E2E2E2E2E2E2E2E2E2E2E2E2E2E2E2E2E2E2E2E2F5E2E2E2E2E2E2E2E2E2E2E2E2E2E2E2E2E2E2E2E2F5F5F5E2E2F5E2E2E2E2E2E2E2E2E2E2E2E2E2E2E2E2E2F5E2E2E2E2E2E2E2E2E2E2E2
310
E2E2E2E2E2E2E2E2E2E2E2E2E2E2E2E2E2E2E2E2E2E2E2E2E2E2E2E2E2E2E2E2E2E2E2E2E2E2E2E2E2E2E2E2E2E2E2E2E2E2E2E2E2E2E2E2E2E2E2E2E2E2E2E2E2E2E2E2E2E2E2E2E2E2E2E2E2E2E2E2E2E2E2E2E2E2E2E2E2E2E2E2E2E2E2E2E2E2E2E2E2E2E2E2E2E2E2E2E2E2E2E2E2E2E2E2E2E2E2E2E2E2E2E2F5E2E2
310
E2E2E2E2E2E2E2E2E2E2E2E2E2E2E2F5E2E2F5F5F5E2E2F5E2E2E2E2E2E2E2E2E2E2E2E2E2E2E2E2E2F5E2E2E2E2E2E2E2E2E2E2E2E2E2E2E2E2E2E2E2E2E2E2E2E2E2E2E2E2E2E2E2E2E2E2E2E2E2E2E2E2E2E2E2E2E2E2E2E2E2E2E2E2E2E2E2E2E2E2E2E2E2E2E2E2E2E2E2E2E2E2E2E2E2E2E2E2E2E2E2E2E2E2E2E2E2
310
E2E2E2E2E2E2E2E2E2E2E2E2E2E2E2E2E2E2E2E2E2E2E2E2E2E2E2E2E2E2E2E2E2E2E2E2E2E2E2E2E2E2E2E2E2E2E2E2E2E2F5E2E2E2E2E2E2E2E2E2E2E2E2E2E2E2E2E2F5E2E2F5F5F5E2E2F5E2E2E2E2E2E2E2E2E2E2E2E2E2E2E2E2E2F5E2E2E2E2E2E2E2E2E2E2E2E2E2E2E2E2E2E2E2E2E2E2E2E2E2E2E2E2E2E2E2E2
310
E2E2E2E2E2E2E2E2E2E2E2E2E2E2E2E2E2E2E2E2E2E2E2E2E2E2E2E2E2E2E2E2E2E2E2E2E2E2E2E2E2E2E2E2E2E2E2E2E2E2E2E2E2E2E2E2E2E2E2E2E2E2E2E2E2E2E2E2E2E2E2E2E2E2E2E2E2E2E2E2E2E2E2E2E2E2E2E2E2E2E2E2E2E2E2E2E2E2E2E2E2E2E2F5E2E2E2E2E2E2E2E2E2E2E2E2E2E2E2E2E2F5E2E2F5F5F5
310
E2E2F5E2E2E2E2E2E2E2E2E2E2E2E2E2E2E2E2E2F5E2E2E2E2E2E2E2E2E2E2E2E2E2E2E2E2E2E2E2E2E2E2E2E2E2E2E2E2E2E2E2E2E2E2E2E2E2E2E2E2E2E2E2E2E2E2E2E2E2E2E2E2E2E2E2E2E2E2E2E2E2E2E2E2E2E2E2E2E2E2E2E2E2E2E2E2E2E2E2E2E2E2E2E2E2E2E2E2E2E2E2E2E2E2E2E2E2E2E2E2E2E2E2E2E2E2
310
E2E2E2E2E2E2E2E2E2E2E2E2E2E2E2E2E2E2E2E2E2E2E2E2E2E2E2E2E2F5E2E2E2E2E2E2E2E2E2E2E2E2E2E2E2E2E2F5E2E2F5F5F5E2E2F5E2E2E2E2E2E2E2E2E2E2E2E2E2E2E2E2E2F5E2E2E2E2E2E2E2E2E2E2E2E2E2E2E2E2E2E2E2E2E2E2E2E2E2E2E2E2E2E2E2E2E2E2E2E2E2E2E2E2E2E2E2E2E2E2E2E2E2E2E2E2E2
310
E2E2E2E2E2E2E2E2E2E2E2E2E2E2E2E2E2E2E2E2E2E2E2E2E2E2E2E2E2E2E2E2E2E2E2E2E2E2E2E2E2E2E2E2E2E2E2E2E2E2E2E2E2E2E2E2E2E2E2E2E2E2E2E2E2E2E2E2E2E2E2E2E2E2E2E2E2E2E2E2E2E2F5E2E2E2E2E2E2E2E2E2E2E2E2E2E2E2E2E2F5E2E2F5F5F5E2E2F5E2E2E2E2E2E2E2E2E2E2E2E2E2E2E2E2E2F5
310
E2E2E2E2E2E2E2E2E2E2E2E2E2E2E2E2E2E2E2E2E2E2E2E2E2E2E2E2E2E2E2E2E2E2E2E2E2E2E2E2E2E2E2E2E2E2E2E2E2E2E2E2E2E2E2E2E2E2E2E2E2E2E2E2E2E2E2E2E2E2E2E2E2E2E2E2E2E2E2E2E2E2E2E2E2E2E2E2E2E2E2E2E2E2E2E2E2E2E2E2E2E2E2E2E2E2E2E2E2E2E2E2E2E2E2E2E2E2E2E2E2E2E2E2E2E2E2
310
E2E2E2E2E2E2E2E2F5E2E2E2E2E2E2E2E2E2E2E2E2E2E2E2E2E2F5E2E2F5F5F5E2E2F5E2E2E2E2E2E2E2E2E2E2E2E2E2E2E2E2E2F5E2E2E2E2E2E2E2E2E2E2E2E2E2E2E2E2E2E2E2E2E2E2E2E2E2E2E2E2E2E2E2E2E2E2E2E2E2E2E2E2E2E2E2E2E2E2E2E2E2E2E2E2E2E2E2E2E2E2E2E2E2E2E2E2E2E2E2E2E2E2E2E2E2E2
310
E2E2E2E2E2E2E2E2E2E2E2E2E2E2E2E2E2E2E2E2E2E2E2E2E2E2E2E2E2E2E2E2E2E2E2E2E2E2E2E2E2E2E2E2E2E2E2E2E2E2E2E2E2E2E2E2E2E2E2E2E2F5E2E2E2E2E2E2E2E2E2E2E2E2E2E2E2E2E2F5E2E2F5F5F5E2E2F5E2E2E2E2E2E2E2E2E2E2E2E2E2E2E2E2E2F5E2E2E2E2E2E2E2E2E2E2E2E2E2E2E2E2E2E2E2E2E2
310
E2E2E2E2E2E2E2E2E2E2E2E2E2E2E2E2E2E2E2E2E2E2E2E2E2E2E2E2E2E2E2E2E2E2E2E2E2E2E2E2E2E2E2E2E2E2E2E2E2E2E2E2E2E2E2E2E2E2E2E2E2E2E2E2E2E2E2E2E2E2E2E2E2E2E2E2E2E2E2E2E2E2E2E2E2E2E2E2E2E2E2E2E2E2E2E2E2E2E2E2E2E2E2E2E2E2E2E2E2E2E2E2E2E2F5E2E2E2E2E2E2E2E2E2E2E2E2
310
E2E2E2E2E2F5E2E2F5F5F5E2E2F5E2E2E2E2E2E2E2E2E2E2E2E2E2E2E2E2E2F5E2E2E2E2E2E2E2E2E2E2E2E2E2E2E2E2E2E2E2E2E2E2E2E2E2E2E2E2E2E2E2E2E2E2E2E2E2E2E2E2E2E2E2E2E2E2E2E2E2E2E2E2E2E2E2E2E2E2E2E2E2E2E2E2E2E2E2E2E2E2E2E2E2E2E2E2E2E2E2E2E2E2E2E2E2E2E2E2E2E2E2E2E2E2E2
310
E2E2E2E2E2E2E2E2E2E2E2E2E2E2E2E2E2E2E2E2E2E2E2E2E2E2E2E2E2E2E2E2E2E2E2E2E2E2E2E2F5E2E2E2E2E2E2E2E2E2E2E2E2E2E2E2E2E2F5E2E2F5F5F5E2E2F5E2E2E2E2E2E2E2E2E2E2E2E2E2E2E2E2E2F5E2E2E2E2E2E2E2E2E2E2E2E2E2E2E2E2E2E2E2E2E2E2E2E2E2E2E2E2E2E2E2E2E2E2E2E2E2E2E2E2E2E2
310
E2E2E2E2E2E2E2E2E2E2E2E2E2E2E2E2E2E2E2E2E2E2E2E2E2E2E2E2E2E2E2E2E2E2E2E2E2E2E2E2E2E2E2E2E2E2E2E2E2E2E2E2E2E2E2E2E2E2E2E2E2E2E2E2E2E2E2E2E2E2E2E2E2E2E2E2E2E2E2E2E2E2E2E2E2E2E2E2E2E2E2E2E2F5E2E2E2E2E2E2E2E2E2E2E2E2E2E2E2E2E2F5E2E2F5F5F5E2E2F5E2E2E2E2E2E2E2
310
E2E2E2E2E2E2E2E2E2E2F5E2E2E2E2E2E2E2E2E2E2E2E2E2E2E2E2E2E2E2E2E2E2E2E2E2E2E2E2E2E2E2E2E2E2E2E2E2E2E2E2E2E2E2E2E2E2E2E2E2E2E2E2E2E2E2E2E2E2E2E2E2E2E2E2E2E2E2E2E2E2E2E2E2E2E2E2E2E2E2E2E2E2E2E2E2E2E2E2E2E2E2E2E2E2E2E2E2E2E2E2E2E2E2E2E2E2E2E2E2E2E2E2E2E2E2E2
310
E2E2E2E2E2E2E2E2E2E2E2E2E2E2E2E2E2E2E2F5E2E2E2E2E2E2E2E2E2E2E2E2E2E2E2E2E2F5E2E2F5F5F5E2E2F5E2E2E2E2E2E2E2E2E2E2E2E2E2E2E2E2E2F5E2E2E2E2E2E2E2E2E2E2E2E2E2E2E2E2E2E2E2E2E2E2E2E2E2E2E2E2E2E2E2E2E2E2E2E2E2E2E2E2E2E2E2E2E2E2E2E2E2E2E2E2E2E2E2E2E2E2E2E2E2E2E2
310
E2E2E2E2E2E2E2E2E2E2E2E2E2E2E2E2E2E2E2E2E2E2E2E2E2E2E2E2E2E2E2E2E2E2E2E2E2E2E2E2E2E2E2E2E2E2E2E2E2E2E2E2E2E2E2E2E2E2E2E2E2E2E2E2E2E2E2E2E2E2E2E2F5E2E2E2E2E2E2E2E2E2E2E2E2E2E2E2E2E2F5E2E2F5F5F5E2E2F5E2E2E2E2E2E2E2E2E2E2E2E2E2E2E2E2E2F5E2E2E2E2E2E2E2E2E2E2
310
E2E2E2E2E2E2E2E2E2E2E2E2E2E2E2E2E2E2E2E2E2E2E2E2E2E2E2E2E2E2E2E2E2E2E2E2E2E2E2E2E2E2E2E2E2E2E2E2E2E2E2E2E2E2E2E2E2E2E2E2E2E2E2E2E2E2E2E2E2E2E2E2E2E2E2E2E2E2E2E2E2E2E2E2E2E2E2E2E2E2E2E2E2E2E2E2E2E2E2E2E2E2E2E2E2E2E2E2E2E2E2E2E2E2E2E2E2E2E2E2E2E2E2E2E2F5E2
310
E2E2E2E2E2E2E2E2E2E2E2E2E2E2E2E2F5E2E2F5F5F5E2E2F5E2E2E2E2E2E2E2E2E2E2E2E2E2E2E2E2E2F5E2E2E2E2E2E2E2E2E2E2E2E2E2E2E2E2E2E2E2E2E2E2E2E2E2E2E2E2E2E2E2E2E2E2E2E2E2E2E2E2E2E2E2E2E2E2E2E2E2E2E2E2E2E2E2E2E2E2E2E2E2E2E2E2E2E2E2E2E2E2E2E2E2E2E2E2E2E2E2E2E2E2E2E2
310
E2E2E2E2E2E2E2E2E2E2E2E2E2E2E2E2E2E2E2E2E2E2E2E2E2E2E2E2E2E2E2E2E2E2E2E2E2E2E2E2E2E2E2E2E2E2E2E2E2E2E2F5E2E2E2E2E2E2E2E2E2E2E2E2E2E2E2E2E2F5E2E2F5F5F5E2E2F5E2E2E2E2E2E2E2E2E2E2E2E2E2E2E2E2E2F5E2E2E2E2E2E2E2E2E2E2E2E2E2E2E2E2E2E2E2E2E2E2E2E2E2E2E2E2E2E2E2
310
E2E2E2E2E2E2E2E2E2E2E2E2E2E2E2E2E2E2E2E2E2E2E2E2E2E2E2E2E2E2E2E2E2E2E2E2E2E2E2E2E2E2E2E2E2E2E2E2E2E2E2E2E2E2E2E2E2E2E2E2E2E2E2E2E2E2E2E2E2E2E2E2E2E2E2E2E2E2E2E2E2E2E2E2E2E2E2E2E2E2E2E2E2E2E2E2E2E2E2E2E2E2E2E2F5E2E2E2E2E2E2E2E2E2E2E2E2E2E2E2E2E2F5E2E2F5F5
310
F5E2E2E2E2E2E2E2E2E2E2E2E2E2E2E2E2E2E2E2E2F5E2E2E2E2E2E2E2E2E2E2E2E2E2E2E2E2E2E2E2E2E2E2E2E2E2E2E2E2E2E2E2E2E2E2E2E2E2E2E2E2E2E2E2E2E2E2E2E2E2E2E2E2E2E2E2E2E2E2E2E2E2E2E2E2E2E2E2E2E2E2E2E2E2E2E2E2E2E2E2E2E2E2E2E2E2E2E2E2E2E2E2E2E2E2E2E2E2E2E2E2E2E2E2E2E2
310
E2E2E2E2E2E2E2E2E2E2E2E2E2E2E2E2E2E2E2E2E2E2E2E2E2E2E2E2E2E2F5E2E2E2E2E2E2E2E2E2E2E2E2E2E2E2E2E2E2E2E2F5F5F5E2E2E2E2E2E2E2E2E2E2E2E2E2E2E2E2E2E2E2E2F5E2E2E2E2E2E2E2E2E2E2E2E2E2E2E2E2E2E2E2E2E2E2E2E2E2E2E2E2E2E2E2E2E2E2E2E2E2E2E2E2E2E2E2E2E2E2E2E2E2E2E2E2
310
E2E2E2E2E2E2E2E2E2E2E2E2E2E2E2E2E2E2E2E2E2E2E2E2E2E2E2E2E2E2E2E2E2E2E2E2E2E2E2E2E2E2E2E2E2E2E2E2E2E2E2E2E2E2E2E2E2E2E2E2E2E2E2E2E2E2E2E2E2E2E2E2E2E2E2E2E2E2E2E2E2E2E2F5E2E2E2E2E2E2E2E2E2E2E2E2E2E2E2E2E2E2E2E2F5F5F5E2E2E2E2E2E2E2E2E2E2E2E2E2E2E2E2E2E2E2E2
310
F5E2E2E2E2E2E2E2E2E2E2E2E2E2E2E2E2E2E2E2E2E2E2E2E2E2E2E2E2E2E2E2E2E2E2E2E2E2E2E2E2E2E2E2E2E2E2E2E2E2E2E2E2E2E2E2E2E2E2E2E2E2E2E2E2E2E2E2E2E2E2E2E2E2E2E2E2E2E2E2E2E2E2E2E2E2E2E2E2E2E2E2E2E2E2E2E2E2E2E2E2E2E2E2E2E2E2E2E2E2E2E2E2E2E2E2E2E2E2E2E2E2E2E2E2E2E2
310
E2E2E2E2E2E2E2E2E2F5E2E2E2E2E2E2E2E2E2E2E2E2E2E2E2E2E2E2E2E2F5F5F5E2E2E2E2E2E2E2E2E2E2E2E2E2E2E2E2E2E2E2E2F5E2E2E2E2E2E2E2E2E2E2E2E2E2E2E2E2E2E2E2E2E2E2E2E2E2E2E2E2E2E2E2E2E2E2E2E2E2E2E2E2E2E2E2E2E2E2E2E2E2E2E2E2E2E2E2E2E2E2E2E2E2E2E2E2E2E2E2E2E2E2E2E2E2
310
E2E2E2E2E2E2E2E2E2E2E2E2E2E2E2E2E2E2E2E2E2E2E2E2E2E2E2E2E2E2E2E2E2E2E2E2E2E2E2E2E2E2E2E2E2E2E2E2E2E2E2E2E2E2E2E2E2E2E2E2E2E2F5E2E2E2E2E2E2E2E2E2E2E2E2E2E2E2E2E2E2E2E2F5F5F5E2E2E2E2E2E2E2E2E2E2E2E2E2E2E2E2E2E2E2E2F5E2E2E2E2E2E2E2E2E2E2E2E2E2E2E2E2E2E2E2E2
310
E2E2E2E2E2E2E2E2E2E2E2E2E2E2E2E2E2E2E2E2E2E2E2E2E2E2E2E2E2E2E2E2E2E2E2E2E2E2E2E2E2E2E2E2E2E2E2E2E2E2E2E2E2E2E2E2E2E2E2E2E2E2E2E2E2E2E2E2E2E2E2E2E2E2E2E2E2E2E2E2E2E2E2E2E2E2E2E2E2E2E2E2E2E2E2E2E2E2E2E2E2E2E2E2E2E2E2E2E2E2E2E2E2E2E2F5E2E2E2E2E2E2E2E2E2E2E2
310
E2E2E2E2E2E2E2E2E2F5F5F5E2E2E2E2E2E2E2E2E2E2E2E2E2E2E2E2E2E2E2E2F5E2E2E2E2E2E2E2E2E2E2E2E2E2E2E2E2E2E2E2E2E2E2E2E2E2E2E2E2E2E2E2E2E2E2E2E2E2E2E2E2E2E2E2E2E2E2E2E2E2E2E2E2E2E2E2E2E2E2E2E2E2E2E2E2E2E2E2E2E2E2E2E2E2E2E2E2E2E2E2E2E2E2E2E2E2E2E2E2E2E2E2E2E2E2
310
E2E2E2E2E2E2E2E2E2E2E2E2E2E2E2E2E2E2E2E2E2E2E2E2E2E2E2E2E2E2E2E2E2E2E2E2E2E2E2E2E2F5E2E2E2E2E2E2E2E2E2E2E2E2E2E2E2E2E2E2E2E2F5F5F5E2E2E2E2E2E2E2E2E2E2E2E2E2E2E2E2E2E2E2E2F5E2E2E2E2E2E2E2E2E2E2E2E2E2E2E2E2E2E2E2E2E2E2E2E2E2E2E2E2E2E2E2E2E2E2E2E2E2E2E2E2E2
310
E2E2E2E2E2E2E2E2E2E2E2E2E2E2E2E2E2E2E2E2E2E2E2E2E2E2E2E2E2E2E2E2E2E2E2E2E2E2E2E2E2E2E2E2E2E2E2E2E2E2E2E2E2E2E2E2E2E2E2E2E2E2E2E2E2E2E2E2E2E2E2E2E2E2E2E2E2E2E2E2E2E2E2E2E2E2E2E2E2E2E2E2E2E2F5E2E2E2E2E2E2E2E2E2E2E2E2E2E2E2E2E2E2E2E2F5F5F5E2E2E2E2E2E2E2E2E2
310
E2E2E2E2E2E2E2E2E2E2E2F5E2E2E2E2E2E2E2E2E2E2E2E2E2E2E2E2E2E2E2E2E2E2E2E2E2E2E2E2E2E2E2E2E2E2E2E2E2E2E2E2E2E2E2E2E2E2E2E2E2E2E2E2E2E2E2E2E2E2E2E2E2E2E2E2E2E2E2E2E2E2E2E2E2E2E2E2E2E2E2E2E2E2E2E2E2E2E2E2E2E2E2E2E2E2E2E2E2E2E2E2E2E2E2E2E2E2E2E2E2E2E2E2E2E2E2
310
E2E2E2E2E2E2E2E2E2E2E2E2E2E2E2E2E2E2E2E2F5E2E2E2E2E2E2E2E2E2E2E2E2E2E2E2E2E2E2E2E2F5F5F5E2E2E2E2E2E2E2E2E2E2E2E2E2E2E2E2E2E2E2E2F5E2E2E2E2E2E2E2E2E2E2E2E2E2E2E2E2E2E2E2E2E2E2E2E2E2E2E2E2E2E2E2E2E2E2E2E2E2E2E2E2E2E2E2E2E2E2E2E2E2E2E2E2E2E2E2E2E2E2E2E2E2E2
310
E2E2E2E2E2E2E2E2E2E2E2E2E2E2E2E2E2E2E2E2E2E2E2E2E2E2E2E2E2E2E2E2E2E2E2E2E2E2E2E2E2E2E2E2E2E2E2E2E2E2E2E2E2E2E2E2E2E2E2E2E2E2E2E2E2E2E2E2E2E2E2E2E2F5E2E2E2E2E2E2E2E2E2E2E2E2E2E2E2E2E2E2E2E2F5F5F5E2E2F5E2E2E2E2E2E2E2E2E2E2E2E2E2E2E2E2E2F5E2E2E2E2E2E2E2E2E2
310
E2E2E2E2E2E2E2E2E2E2E2E2E2E2E2E2E2E2E2E2E2E2E2E2E2E2E2E2E2E2E2E2E2E2E2E2E2E2E2E2E2E2E2E2E2E2E2E2E2E2E2E2E2E2E2E2E2E2E2E2E2E2E2E2E2E2E2E2E2E2E2E2E2E2E2E2E2E2E2E2E2E2E2E2E2E2E2E2E2E2E2E2E2E2E2E2E2E2E2E2E2E2E2E2E2E2E2E2E2E2E2E2E2E2E2E2E2E2E2E2E2E2E2E2E2E2F5
310
E2E2E2E2E2E2E2E2E2E2E2E2E2E2E2E2E2F5E2E2F5F5F5E2E2F5E2E2E2E2E2E2E2E2E2E2E2E2E2E2E2E2E2F5E2E2E2E2E2E2E2E2E2E2E2E2E2E2E2E2E2E2E2E2E2E2E2E2E2E2E2E2E2E2E2E2E2E2E2E2E2E2E2E2E2E2E2E2E2E2E2E2E2E2E2E2E2E2E2E2E2E2E2E2E2E2E2E2E2E2E2E2E2E2E2E2E2E2E2E2E2E2E2E2E2E2E2
310
E2E2E2E2E2E2E2E2E2E2E2E2E2E2E2E2E2E2E2E2E2E2E2E2E2E2E2E2E2E2E2E2E2E2E2E2E2E2E2E2E2E2E2E2E2E2E2E2E2E2E2E2F5E2E2E2E2E2E2E2E2E2E2E2E2E2E2E2E2E2F5E2E2F5F5F5E2E2F5E2E2E2E2E2E2E2E2E2E2E2E2E2E2E2E2E2F5E2E2E2E2E2E2E2E2E2E2E2E2E2E2E2E2E2E2E2E2E2E2E2E2E2E2E2E2E2E2
310
E2E2E2E2E2E2E2E2E2E2E2E2E2E2E2E2E2E2E2E2E2E2E2E2E2E2E2E2E2E2E2E2E2E2E2E2E2E2E2E2E2E2E2E2E2E2E2E2E2E2E2E2E2E2E2E2E2E2E2E2E2E2E2E2E2E2E2E2E2E2E2E2E2E2E2E2E2E2E2E2E2E2E2E2E2E2E2E2E2E2E2E2E2E2E2E2E2E2E2E2E2E2E2E2E2F5E2E2E2E2E2E2E2E2E2E2E2E2E2E2E2E2E2F5E2E2F5
310
F5F5E2E2F5E2E2E2E2E2E2E2E2E2E2E2E2E2E2E2E2E2F5E2E2E2E2E2E2E2E2E2E2E2E2E2E2E2E2E2E2E2E2E2E2E2E2E2E2E2E2E2E2E2E2E2E2E2E2E2E2E2E2E2E2E2E2E2E2E2E2E2E2E2E2E2E2E2E2E2E2E2E2E2E2E2E2E2E2E2E2E2E2E2E2E2E2E2E2E2E2E2E2E2E2E2E2E2E2E2E2E2E2E2E2E2E2E2E2E2E2E2E2E2E2E2E2
310
E2E2E2E2E2E2E2E2E2E2E2E2E2E2E2E2E2E2E2E2E2E2E2E2E2E2E2E2E2E2E2F5E2E2E2E2E2E2E2E2E2E2E2E2E2E2E2E2E2F5E2E2F5F5F5E2E2F5E2E2E2E2E2E2E2E2E2E2E2E2E2E2E2E2E2F5E2E2E2E2E2E2E2E2E2E2E2E2E2E2E2E2E2E2E2E2E2E2E2E2E2E2E2E2E2E2E2E2E2E2E2E2E2E2E2E2E2E2E2E2E2E2E2E2E2E2E2
310
E2E2E2E2E2E2E2E2E2E2E2E2E2E2E2E2E2E2E2E2E2E2E2E2E2E2E2E2E2E2E2E2E2E2E2E2E2E2E2E2E2E2E2E2E2E2E2E2E2E2E2E2E2E2E2E2E2E2E2E2E2E2E2E2E2E2E2E2E2E2E2E2E2E2E2E2E2E2E2E2E2E2E2E2F5E2E2E2E2E2E2E2E2E2E2E2E2E2E2E2E2E2F5E2E2F5F5F5E2E2F5E2E2E2E2E2E2E2E2E2E2E2E2E2E2E2E2
310
E2F5E2E2E2E2E2E2E2E2E2E2E2E2E2E2E2E2E2E2E2E2E2E2E2E2E2E2E2E2E2E2E2E2E2E2E2E2E2E2E2E2E2E2E2E2E2E2E2E2E2E2E2E2E2E2E2E2E2E2E2E2E2E2E2E2E2E2E2E2E2E2E2E2E2E2E2E2E2E2E2E2E2E2E2E2E2E2E2E2E2E2E2E2E2E2E2E2E2E2E2E2E2E2E2E2E2E2E2E2E2E2E2E2E2E2E2E2E2E2E2E2E2E2E2E2E2
310
E2E2E2E2E2E2E2E2E2E2F5E2E2E2E2E2E2E2E2E2E2E2E2E2E2E2E2E2F5E2E2F5F5F5E2E2F5E2E2E2E2E2E2E2E2E2E2E2E2E2E2E2E2E2F5E2E2E2E2E2E2E2E2E2E2E2E2E2E2E2E2E2E2E2E2E2E2E2E2E2E2E2E2E2E2E2E2E2E2E2E2E2E2E2E2E2E2E2E2E2E2E2E2E2E2E2E2E2E2E2E2E2E2E2E2E2E2E2E2E2E2E2E2E2E2E2E2
310
E2E2E2E2E2E2E2E2E2E2E2E2E2E2E2E2E2E2E2E2E2E2E2E2E2E2E2E2E2E2E2E2E2E2E2E2E2E2E2E2E2E2E2E2E2E2E2E2E2E2E2E2E2E2E2E2E2E2E2E2E2E2E2F5E2E2E2E2E2E2E2E2E2E2E2E2E2E2E2E2E2F5E2E2F5F5F5E2E2F5E2E2E2E2E2E2E2E2E2E2E2E2E2E2E2E2E2F5E2E2E2E2E2E2E2E2E2E2E2E2E2E2E2E2E2E2E2
310
E2E2E2E2E2E2E2E2E2E2E2E2E2E2E2E2E2E2E2E2E2E2E2E2E2E2E2E2E2E2E2E2E2E2E2E2E2E2E2E2E2E2E2E2E2E2E2E2E2E2E2E2E2E2E2E2E2E2E2E2E2E2E2E2E2E2E2E2E2E2E2E2E2E2E2E2E2E2E2E2E2E2E2E2E2E2E2E2E2E2E2E2E2E2E2E2E2E2E2E2E2E2E2E2E2E2E2E2E2E2E2E2E2E2E2E2F5E2E2E2E2E2E2E2E2E2E2
310
E2E2E2E2E2E2E2F5E2E2F5F5F5E2E2F5E2E2E2E2E2E2E2E2E2E2E2E2E2E2E2E2E2F5E2E2E2E2E2E2E2E2E2E2E2E2E2E2E2E2E2E2E2E2E2E2E2E2E2E2E2E2E2E2E2E2E2E2E2E2E2E2E2E2E2E2E2E2E2E2E2E2E2E2E2E2E2E2E2E2E2E2E2E2E2E2E2E2E2E2E2E2E2E2E2E2E2E2E2E2E2E2E2E2E2E2E2E2E2E2E2E2E2E2E2E2E2
310
E2E2E2E2E2E2E2E2E2E2E2E2E2E2E2E2E2E2E2E2E2E2E2E2E2E2E2E2E2E2E2E2E2E2E2E2E2E2E2E2E2E2F5E2E2E2E2E2E2E2E2E2E2E2E2E2E2E2E2E2F5E2E2F5F5F5E2E2F5E2E2E2E2E2E2E2E2E2E2E2E2E2E2E2E2E2F5E2E2E2E2E2E2E2E2E2E2E2E2E2E2E2E2E2E2E2E2E2E2E2E2E2E2E2E2E2E2E2E2E2E2E2E2E2E2E2E2
310
E2E2E2E2E2E2E2E2E2E2E2E2E2E2E2E2E2E2E2E2E2E2E2E2E2E2E2E2E2E2E2E2E2E2E2E2E2E2E2E2E2E2E2E2E2E2E2E2E2E2E2E2E2E2E2E2E2E2E2E2E2E2E2E2E2E2E2E2E2E2E2E2E2E2E2E2E2E2E2E2E2E2E2E2E2E2E2E2E2E2E2E2E2E2E2F5E2E2E2E2E2E2E2E2E2E2E2E2E2E2E2E2E2F5E2E2F5F5F5E2E2F5E2E2E2E2E2
310
E2E2E2E2E2E2E2E2E2E2E2E2F5E2E2E2E2E2E2E2E2E2E2E2E2E2E2E2E2E2E2E2E2E2E2E2E2E2E2E2E2E2E2E2E2E2E2E2E2E2E2E2E2E2E2E2E2E2E2E2E2E2E2E2E2E2E2E2E2E2E2E2E2E2E2E2E2E2E2E2E2E2E2E2E2E2E2E2E2E2E2E2E2E2E2E2E2E2E2E2E2E2E2E2E2E2E2E2E2E2E2E2E2E2E2E2E2E2E2E2E2E2E2E2E2E2E2
310
E2E2E2E2E2E2E2E2E2E2E2E2E2E2E2E2E2E2E2E2E2F5E2E2E2E2E2E2E2E2E2E2E2E2E2E2E2E2E2F5E2E2F5F5F5E2E2F5E2E2E2E2E2E2E2E2E2E2E2E2E2E2E2E2E2F5E2E2E2E2E2E2E2E2E2E2E2E2E2E2E2E2E2E2E2E2E2E2E2E2E2E2E2E2E2E2E2E2E2E2E2E2E2E2E2E2E2E2E2E2E2E2E2E2E2E2E2E2E2E2E2E2E2E2E2E2E2
310
E2E2E2E2E2E2E2E2E2E2E2E2E2E2E2E2E2E2E2E2E2E2E2E2E2E2E2E2E2E2E2E2E2E2E2E2E2E2E2E2E2E2E2E2E2E2E2E2E2E2E2E2E2E2E2E2E2E2E2E2E2E2E2E2E2E2E2E2E2E2E2E2E2E2F5E2E2E2E2E2E2E2E2E2E2E2E2E2E2E2E2E2F5E2E2F5F5F5E2E2F5E2E2E2E2E2E2E2E2E2E2E2E2E2E2E2E2E2F5E2E2E2E2E2E2E2E2
310
E2E2E2E2E2E2E2E2E2E2E2E2E2E2E2E2E2E2E2E2E2E2E2E2E2E2E2E2E2E2E2E2E2E2E2E2E2E2E2E2E2E2E2E2E2E2E2E2E2E2E2E2E2E2E2E2E2E2E2E2E2E2E2E2E2E2E2E2E2E2E2E2E2E2E2E2E2E2E2E2E2E2E2E2E2E2E2E2E2E2E2E2E2E2E2E2E2E2E2E2E2E2E2E2E2E2E2E2E2E2E2E2E2E2E2E2E2E2E2E2E2E2E2E2E2E2E2
310
F5E2E2E2E2E2E2E2E2E2E2E2E2E2E2E2E2E2F5E2E2F5F5F5E2E2F5E2E2E2E2E2E2E2E2E2E2E2E2E2E2E2E2E2F5E2E2E2E2E2E2E2E2E2E2E2E2E2E2E2E2E2E2E2E2E2E2E2E2E2E2E2E2E2E2E2E2E2E2E2E2E2E2E2E2E2E2E2E2E2E2E2E2E2E2E2E2E2E2E2E2E2E2E2E2E2E2E2E2E2E2E2E2E2E2E2E2E2E2E2E2E2E2E2E2E2E2
310
E2E2E2E2E2E2E2E2E2E2E2E2E2E2E2E2E2E2E2E2E2E2E2E2E2E2E2E2E2E2E2E2E2E2E2E2E2E2E2E2E2E2E2E2E2E2E2E2E2E2E2E2E2F5E2E2E2E2E2E2E2E2E2E2E2E2E2E2E2E2E2F5E2E2F5F5F5E2E2F5E2E2E2E2E2E2E2E2E2E2E2E2E2E2E2E2E2F5E2E2E2E2E2E2E2E2E2E2E2E2E2E2E2E2E2E2E2E2E2E2E2E2E2E2E2E2E2
310
E2E2E2E2E2E2E2E2E2E2E2E2E2E2E2E2E2E2E2E2E2E2E2E2E2E2E2E2E2E2E2E2E2E2E2E2E2E2E2E2E2E2E2E2E2E2E2E2E2E2E2E2E2E2E2E2E2E2E2E2E2E2E2E2E2E2E2E2E2E2E2E2E2E2E2E2E2E2E2E2E2E2E2E2E2E2E2E2E2E2E2E2E2E2E2E2E2E2E2E2E2E2E2E2E2E2F5E2E2E2E2E2E2E2E2E2E2E2E2E2E2E2E2E2F5E2E2
310
F5F5F5E2E2E2E2E2E2E2E2E2E2E2E2E2E2E2E2E2E2E2E2F5E2E2E2E2E2E2E2E2E2E2E2E2E2E2E2E2E2E2E2E2E2E2E2E2E2E2E2E2E2E2E2E2E2E2E2E2E2E2E2E2E2E2E2E2E2E2E2E2E2E2E2E2E2E2E2E2E2E2E2E2E2E2E2E2E2E2E2E2E2E2E2E2E2E2E2E2E2E2E2E2E2E2E2E2E2E2E2E2E2E2E2E2E2E2E2E2E2E2E2E2E2E2E2
310
E2E2E2E2E2E2E2E2E2E2E2E2E2E2E2E2E2E2E2E2E2E2E2E2E2E2E2E2E2E2E2E2F5E2E2E2E2E2E2E2E2E2E2E2E2E2E2E2E2E2E2E2E2F5F5F5E2E2E2E2E2E2E2E2E2E2E2E2E2E2E2E2E2E2E2E2F5E2E2E2E2E2E2E2E2E2E2E2E2E2E2E2E2E2E2E2E2E2E2E2E2E2E2E2E2E2E2E2E2E2E2E2E2E2E2E2E2E2E2E2E2E2E2E2E2E2E2
310
E2E2E2E2E2E2E2E2E2E2E2E2E2E2E2E2E2E2E2E2E2E2E2E2E2E2E2E2E2E2E2E2E2E2E2E2E2E2E2E2E2E2E2E2E2E2E2E2E2E2E2E2E2E2E2E2E2E2E2E2E2E2E2E2E2E2E2E2E2E2E2E2E2E2E2E2E2E2E2E2E2E2E2E2E2F5E2E2E2E2E2E2E2E2E2E2E2E2E2E2E2E2E2E2E2E2F5F5F5E2E2E2E2E2E2E2E2E2E2E2E2E2E2E2E2E2E2
310
E2E2F5E2E2E2E2E2E2E2E2E2E2E2E2E2E2E2E2E2E2E2E2E2E2E2E2E2E2E2E2E2E2E2E2E2E2E2E2E2E2E2E2E2E2E2E2E2E2E2E2E2E2E2E2E2E2E2E2E2E2E2E2E2E2E2E2E2E2E2E2E2E2E2E2E2E2E2E2E2E2E2E2E2E2E2E2E2E2E2E2E2E2E2E2E2E2E2E2E2E2E2E2E2E2E2E2E2E2E2E2E2E2E2E2E2E2E2E2E2E2E2E2E2E2E2E2
310
E2E2E2E2E2E2E2E2E2E2E2F5E2E2E2E2E2E2E2E2E2E2E2E2E2E2E2E2E2E2E2E2F5F5F5E2E2E2E2E2E2E2E2E2E2E2E2E2E2E2E2E2E2E2E2F5E2E2E2E2E2E2E2E2E2E2E2E2E2E2E2E2E2E2E2E2E2E2E2E2E2E2E2E2E2E2E2E2E2E2E2E2E2E2E2E2E2E2E2E2E2E2E2E2E2E2E2E2E2E2E2E2E2E2E2E2E2E2E2E2E2E2E2E2E2E2E2
310
E2E2E2E2E2E2E2E2E2E2E2E2E2E2E2E2E2E2E2E2E2E2E2E2E2E2E2E2E2E2E2E2E2E2E2E2E2E2E2E2E2E2E2E2E2E2E2E2E2E2E2E2E2E2E2E2E2E2E2E2E2E2E2E2F5E2E2E2E2E2E2E2E2E2E2E2E2E2E2E2E2E2E2E2E2F5F5F5E2E2E2E2E2E2E2E2E2E2E2E2E2E2E2E2E2E2E2E2F5E2E2E2E2E2E2E2E2E2E2E2E2E2E2E2E2E2E2
310
E2E2E2E2E2E2E2E2E2E2E2E2E2E2E2E2E2E2E2E2E2E2E2E2E2E2E2E2E2E2E2E2E2E2E2E2E2E2E2E2E2E2E2E2E2E2E2E2E2E2E2E2E2E2E2E2E2E2E2E2E2E2E2E2E2E2E2E2E2E2E2E2E2E2E2E2E2E2E2E2E2E2E2E2E2E2E2E2E2E2E2E2E2E2E2E2E2E2E2E2E2E2E2E2E2E2E2E2E2E2E2E2E2E2E2E2E2F5E2E2E2E2E2E2E2E2E2
310
E2E2E2E2E2E2E2E2E2E2E2F5F5F5E2E2E2E2E2E2E2E2E2E2E2E2E2E2E2E2E2E2E2E2F5E2E2E2E2E2E2E2E2E2E2E2E2E2E2E2E2E2E2E2E2E2E2E2E2E2E2E2E2E2E2E2E2E2E2E2E2E2E2E2E2E2E2E2E2E2E2E2E2E2E2E2E2E2E2E2E2E2E2E2E2E2E2E2E2E2E2E2E2E2E2E2E2E2E2E2E2E2E2E2E2E2E2E2E2E2E2E2E2E2E2E2E2
310
E2E2E2E2E2E2E2E2E2E2E2E2E2E2E2E2E2E2E2E2E2E2E2E2E2E2E2E2E2E2E2E2E2E2E2E2E2E2E2E2E2E2E2F5E2E2E2E2E2E2E2E2E2E2E2E2E2E2E2E2E2E2E2E2F5F5F5E2E2E2E2E2E2E2E2E2E2E2E2E2E2E2E2E2E2E2E2F5E2E2E2E2E2E2E2E2E2E2E2E2E2E2E2E2E2E2E2E2E2E2E2E2E2E2E2E2E2E2E2E2E2E2E2E2E2E2E2
310
E2E2E2E2E2E2E2E2E2E2E2E2E2E2E2E2E2E2E2E2E2E2E2E2E2E2E2E2E2E2E2E2E2E2E2E2E2E2E2E2E2E2E2E2E2E2E2E2E2E2E2E2E2E2E2E2E2E2E2E2E2E2E2E2E2E2E2E2E2E2E2E2E2E2E2E2E2E2E2E2E2E2E2E2E2E2E2E2E2E2E2E2E2E2E2E2F5E2E2E2E2E2E2E2E2E2E2E2E2E2E2E2E2E2E2E2E2F5F5F5E2E2E2E2E2E2E2
310
E2E2E2E2E2E2E2E2E2E2E2E2E2F5E2E2E2E2E2E2E2E2E2E2E2E2E2E2E2E2E2E2E2E2E2E2E2E2E2E2E2E2E2E2E2E2E2E2E2E2E2E2E2E2E2E2E2E2E2E2E2E2E2E2E2E2E2E2E2E2E2E2E2E2E2E2E2E2E2E2E2E2E2E2E2E2E2E2E2E2E2E2E2E2E2E2E2E2E2E2E2E2E2E2E2E2E2E2E2E2E2E2E2E2E2E2E2E2E2E2E2E2E2E2E2E2E2
310
E2E2E2E2E2E2E2E2E2E2E2E2E2E2E2E2E2E2E2E2E2E2F5E2E2E2E2E2E2E2E2E2E2E2E2E2E2E2E2E2E2E2E2F5F5F5E2E2E2E2E2E2E2E2E2E2E2E2E2E2E2E2E2E2E2E2F5E2E2E2E2E2E2E2E2E2E2E2E2E2E2E2E2E2E2E2E2E2E2E2E2E2E2E2E2E2E2E2E2E2E2E2E2E2E2E2E2E2E2E2E2E2E2E2E2E2E2E2E2E2E2E2E2E2E2E2E2
310
E2E2E2E2E2E2E2E2E2E2E2E2E2E2E2E2E2E2E2E2E2E2E2E2E2E2E2E2E2E2E2E2E2E2E2E2E2E2E2E2E2E2E2E2E2E2E2E2E2E2E2E2E2E2E2E2E2E2E2E2E2E2E2E2E2E2E2E2E2E2E2E2E2E2E2F5E2E2E2E2E2E2E2E2E2E2E2E2E2E2E2E2E2E2E2E2F5F5F5E2E2F5E2E2E2E2E2E2E2E2E2E2E2E2E2E2E2E2E2F5E2E2E2E2E2E2E2
310
E2E2E2E2E2E2E2E2E2E2E2E2E2E2E2E2E2E2E2E2E2E2E2E2E2E2E2E2E2E2E2E2E2E2E2E2E2E2E2E2E2E2E2E2E2E2E2E2E2E2E2E2E2E2E2E2E2E2E2E2E2E2E2E2E2E2E2E2E2E2E2E2E2E2E2E2E2E2E2E2E2E2E2E2E2E2E2E2E2E2E2E2E2E2E2E2E2E2E2E2E2E2E2E2E2E2E2E2E2E2E2E2E2E2E2E2E2E2E2E2E2E2E2E2E2E2E2
310
E2F5E2E2E2E2E2E2E2E2E2E2E2E2E2E2E2E2E2F5E2E2F5F5F5E2E2F5E2E2E2E2E2E2E2E2E2E2E2E2E2E2E2E2E2F5E2E2E2E2E2E2E2E2E2E2E2E2E2E2E2E2E2E2E2E2E2E2E2E2E2E2E2E2E2E2E2E2E2E2E2E2E2E2E2E2E2E2E2E2E2E2E2E2E2E2E2E2E2E2E2E2E2E2E2E2E2E2E2E2E2E2E2E2E2E2E2E2E2E2E2E2E2E2E2E2E2
310
E2E2E2E2E2E2E2E2E2E2E2E2E2E2E2E2E2E2E2E2E2E2E2E2E2E2E2E2E2E2E2E2E2E2E2E2E2E2E2E2E2E2E2E2E2E2E2E2E2E2E2E2E2E2F5E2E2E2E2E2E2E2E2E2E2E2E2E2E2E2E2E2F5E2E2F5F5F5E2E2F5E2E2E2E2E2E2E2E2E2E2E2E2E2E2E2E2E2F5E2E2E2E2E2E2E2E2E2E2E2E2E2E2E2E2E2E2E2E2E2E2E2E2E2E2E2E2
310
E2E2E2E2E2E2E2E2E2E2E2E2E2E2E2E2E2E2E2E2E2E2E2E2E2E2E2E2E2E2E2E2E2E2E2E2E2E2E2E2E2E2E2E2E2E2E2E2E2E2E2E2E2E2E2E2E2E2E2E2E2E2E2E2E2E2E2E2E2E2E2E2E2E2E2E2E2E2E2E2E2E2E2E2E2E2E2E2E2E2E2E2E2E2E2E2E2E2E2E2E2E2E2E2E2E2E2F5E2E2E2E2E2E2E2E2E2E2E2E2E2E2E2E2E2F5E2
310
E2F5F5F5E2E2F5E2E2E2E2E2E2E2E2E2E2E2E2E2E2E2E2E2F5E2E2E2E2E2E2E2E2E2E2E2E2E2E2E2E2E2E2E2E2E2E2E2E2E2E2E2E2E2E2E2E2E2E2E2E2E2E2E2E2E2E2E2E2E2E2E2E2E2E2E2E2E2E2E2E2E2E2E2E2E2E2E2E2E2E2E2E2E2E2E2E2E2E2E2E2E2E2E2E2E2E2E2E2E2E2E2E2E2E2E2E2E2E2E2E2E2E2E2E2E2E2
310
E2E2E2E2E2E2E2E2E2E2E2E2E2E2E2E2E2E2E2E2E2E2E2E2E2E2E2E2E2E2E2E2E2F5E2E2E2E2E2E2E2E2E2E2E2E2E2E2E2E2E2F5E2E2F5F5F5E2E2F5E2E2E2E2E2E2E2E2E2E2E2E2E2E2E2E2E2F5E2E2E2E2E2E2E2E2E2E2E2E2E2E2E2E2E2E2E2E2E2E2E2E2E2E2E2E2E2E2E2E2E2E2E2E2E2E2E2E2E2E2E2E2E2E2E2E2E2
310
E2E2E2E2E2E2E2E2E2E2E2E2E2E2E2E2E2E2E2E2E2E2E2E2E2E2E2E2E2E2E2E2E2E2E2E2E2E2E2E2E2E2E2E2E2E2E2E2E2E2E2E2E2E2E2E2E2E2E2E2E2E2E2E2E2E2E2E2E2E2E2E2E2E2E2E2E2E2E2E2E2E2E2E2E2E2F5E2E2E2E2E2E2E2E2E2E2E2E2E2E2E2E2E2F5E2E2F5F5F5E2E2F5E2E2E2E2E2E2E2E2E2E2E2E2E2E2
310
E2E2E2F5E2E2E2E2E2E2E2E2E2E2E2E2E2E2E2E2E2E2E2E2E2E2E2E2E2E2E2E2E2E2E2E2E2E2E2E2E2E2E2E2E2E2E2E2E2E2E2E2E2E2E2E2E2E2E2E2E2E2E2E2E2E2E2E2E2E2E2E2E2E2E2E2E2E2E2E2E2E2E2E2E2E2E2E2E2E2E2E2E2E2E2E2E2E2E2E2E2E2E2E2E2E2E2E2E2E2E2E2E2E2E2E2E2E2E2E2E2E2E2E2E2E2E2
310
E2E2E2E2E2E2E2E2E2E2E2E2F5E2E2E2E2E2E2E2E2E2E2E2E2E2E2E2E2E2F5E2E2F5F5F5E2E2F5E2E2E2E2E2E2E2E2E2E2E2E2E2E2E2E2E2F5E2E2E2E2E2E2E2E2E2E2E2E2E2E2E2E2E2E2E2E2E2E2E2E2E2E2E2E2E2E2E2E2E2E2E2E2E2E2E2E2E2E2E2E2E2E2E2E2E2E2E2E2E2E2E2E2E2E2E2E2E2E2E2E2E2E2E2E2E2E2
310
E2E2E2E2E2E2E2E2E2E2E2E2E2E2E2E2E2E2E2E2E2E2E2E2E2E2E2E2E2E2E2E2E2E2E2E2E2E2E2E2E2E2E2E2E2E2E2E2E2E2E2E2E2E2E2E2E2E2E2E2E2E2E2E2E2F5E2E2E2E2E2E2E2E2E2E2E2E2E2E2E2E2E2F5E2E2F5F5F5E2E2F5E2E2E2E2E2E2E2E2E2E2E2E2E2E2E2E2E2F5E2E2E2E2E2E2E2E2E2E2E2E2E2E2E2E2E2
310
E2E2E2E2E2E2E2E2E2E2E2E2E2E2E2E2E2E2E2E2E2E2E2E2E2E2E2E2E2E2E2E2E2E2E2E2E2E2E2E2E2E2E2E2E2E2E2E2E2E2E2E2E2E2E2E2E2E2E2E2E2E2E2E2E2E2E2E2E2E2E2E2E2E2E2E2E2E2E2E2E2E2E2E2E2E2E2E2E2E2E2E2E2E2E2E2E2E2E2E2E2E2E2E2E2E2E2E2E2E2E2E2E2E2E2E2E2E2F5E2E2E2E2E2E2E2E2
310
E2E2E2E2E2E2E2E2E2F5E2E2F5F5F5E2E2F5E2E2E2E2E2E2E2E2E2E2E2E2E2E2E2E2E2F5E2E2E2E2E2E2E2E2E2E2E2E2E2E2E2E2E2E2E2E2E2E2E2E2E2E2E2E2E2E2E2E2E2E2E2E2E2E2E2E2E2E2E2E2E2E2E2E2E2E2E2E2E2E2E2E2E2E2E2E2E2E2E2E2E2E2E2E2E2E2E2E2E2E2E2E2E2E2E2E2E2E2E2E2E2E2E2E2E2E2E2
310
E2E2E2E2E2E2E2E2E2E2E2E2E2E2E2E2E2E2E2E2E2E2E2E2E2E2E2E2E2E2E2E2E2E2E2E2E2E2E2E2E2E2E2E2F5E2E2E2E2E2E2E2E2E2E2E2E2E2E2E2E2E2F5E2E2F5F5F5E2E2F5E2E2E2E2E2E2E2E2E2E2E2E2E2E2E2E2E2F5E2E2E2E2E2E2E2E2E2E2E2E2E2E2E2E2E2E2E2E2E2E2E2E2E2E2E2E2E2E2E2E2E2E2E2E2E2E2
310
E2E2E2E2E2E2E2E2E2E2E2E2E2E2E2E2E2E2E2E2E2E2E2E2E2E2E2E2E2E2E2E2E2E2E2E2E2E2E2E2E2E2E2E2E2E2E2E2E2E2E2E2E2E2E2E2E2E2E2E2E2E2E2E2E2E2E2E2E2E2E2E2E2E2E2E2E2E2E2E2E2E2E2E2E2E2E2E2E2E2E2E2E2E2E2E2E2F5E2E2E2E2E2E2E2E2E2E2E2E2E2E2E2E2E2F5E2E2F5F5F5E2E2F5E2E2E2
310
E2E2E2E2E2E2E2E2E2E2E2E2E2E2F5E2E2E2E2E2E2E2E2E2E2E2E2E2E2E2E2E2E2E2E2E2E2E2E2E2E2E2E2E2E2E2E2E2E2E2E2E2E2E2E2E2E2E2E2E2E2E2E2E2E2E2E2E2E2E2E2E2E2E2E2E2E2E2E2E2E2E2E2E2E2E2E2E2E2E2E2E2E2E2E2E2E2E2E2E2E2E2E2E2E2E2E2E2E2E2E2E2E2E2E2E2E2E2E2E2E2E2E2E2E2E2E2
310
E2E2E2E2E2E2E2E2E2E2E2E2E2E2E2E2E2E2E2E2E2E2E2F5E2E2E2E2E2E2E2E2E2E2E2E2E2E2E2E2E2F5E2E2F5F5F5E2E2F5E2E2E2E2E2E2E2E2E2E2E2E2E2E2E2E2E2F5E2E2E2E2E2E2E2E2E2E2E2E2E2E2E2E2E2E2E2E2E2E2E2E2E2E2E2E2E2E2E2E2E2E2E2E2E2E2E2E2E2E2E2E2E2E2E2E2E2E2E2E2E2E2E2E2E2E2E2
310
E2E2E2E2E2E2E2E2E2E2E2E2E2E2E2E2E2E2E2E2E2E2E2E2E2E2E2E2E2E2E2E2E2E2E2E2E2E2E2E2E2E2E2E2E2E2E2E2E2E2E2E2E2E2E2E2E2E2E2E2E2E2E2E2E2E2E2E2E2E2E2E2E2E2E2E2F5E2E2E2E2E2E2E2E2E2E2E2E2E2E2E2E2E2F5E2E2F5F5F5E2E2F5E2E2E2E2E2E2E2E2E2E2E2E2E2E2E2E2E2F5E2E2E2E2E2E2
310
E2E2E2E2E2E2E2E2E2E2E2E2E2E2E2E2E2E2E2E2E2E2E2E2E2E2E2E2E2E2E2E2E2E2E2E2E2E2E2E2E2E2E2E2E2E2E2E2E2E2E2E2E2E2E2E2E2E2E2E2E2E2E2E2E2E2E2E2E2E2E2E2E2E2E2E2E2E2E2E2E2E2E2E2E2E2E2E2E2E2E2E2E2E2E2E2E2E2E2E2E2E2E2E2E2E2E2E2E2E2E2E2E2E2E2E2E2E2E2E2E2E2E2E2E2E2E2
310
E2E2F5E2E2E2E2E2E2E2E2E2E2E2E2E2E2E2E2E2F5E2E2F5F5F5E2E2F5E2E2E2E2E2E2E2E2E2E2E2E2E2E2E2E2E2F5E2E2E2E2E2E2E2E2E2E2E2E2E2E2E2E2E2E2E2E2E2E2E2E2E2E2E2E2E2E2E2E2E2E2E2E2E2E2E2E2E2E2E2E2E2E2E2E2E2E2E2E2E2E2E2E2E2E2E2E2E2E2E2E2E2E2E2E2E2E2E2E2E2E2E2E2E2E2E2E2
310
E2E2E2E2E2E2E2E2E2E2E2E2E2E2E2E2E2E2E2E2E2E2E2E2E2E2E2E2E2E2E2E2E2E2E2E2E2E2E2E2E2E2E2E2E2E2E2E2E2E2E2E2E2E2E2F5E2E2E2E2E2E2E2E2E2E2E2E2E2E2E2E2E2F5E2E2F5F5F5E2E2F5E2E2E2E2E2E2E2E2E2E2E2E2E2E2E2E2E2F5E2E2E2E2E2E2E2E2E2E2E2E2E2E2E2E2E2E2E2E2E2E2E2E2E2E2E2
310
E2E2E2E2E2E2E2E2E2E2E2E2E2E2E2E2E2E2E2E2E2E2E2E2E2E2E2E2E2E2E2E2E2E2E2E2E2E2E2E2E2E2E2E2E2E2E2E2E2E2E2E2E2E2E2E2E2E2E2E2E2E2E2E2E2E2E2E2E2E2E2E2E2E2E2E2E2E2E2E2E2E2E2E2E2E2E2E2E2E2E2E2E2E2E2E2E2E2E2E2E2E2E2E2E2E2E2E2F5E2E2E2E2E2E2E2E2E2E2E2E2E2E2E2E2E2F5
310
E2E2F5F5F5E2E2E2E2E2E2E2E2E2E2E2E2E2E2E2E2E2E2E2E2F5E2E2E2E2E2E2E2E2E2E2E2E2E2E2E2E2E2E2E2E2E2E2E2E2E2E2E2E2E2E2E2E2E2E2E2E2E2E2E2E2E2E2E2E2E2E2E2E2E2E2E2E2E2E2E2E2E2E2E2E2E2E2E2E2E2E2E2E2E2E2E2E2E2E2E2E2E2E2E2E2E2E2E2E2E2E2E2E2E2E2E2E2E2E2E2E2E2E2E2E2E2
310
E2E2E2E2E2E2E2E2E2E2E2E2E2E2E2E2E2E2E2E2E2E2E2E2E2E2E2E2E2E2E2E2E2E2F5E2E2E2E2E2E2E2E2E2E2E2E2E2E2E2E2E2E2E2E2F5F5F5E2E2E2E2E2E2E2E2E2E2E2E2E2E2E2E2E2E2E2E2F5E2E2E2E2E2E2E2E2E2E2E2E2E2E2E2E2E2E2E2E2E2E2E2E2E2E2E2E2E2E2E2E2E2E2E2E2E2E2E2E2E2E2E2E2E2E2E2E2
310
E2E2E2E2E2E2E2E2E2E2E2E2E2E2E2E2E2E2E2E2E2E2E2E2E2E2E2E2E2E2E2E2E2E2E2E2E2E2E2E2E2E2E2E2E2E2E2E2E2E2E2E2E2E2E2E2E2E2E2E2E2E2E2E2E2E2E2E2E2E2E2E2E2E2E2E2E2E2E2E2E2E2E2E2E2E2E2F5E2E2E2E2E2E2E2E2E2E2E2E2E2E2E2E2E2E2E2E2F5F5F5E2E2E2E2E2E2E2E2E2E2E2E2E2E2E2E2
310
E2E2E2E2F5E2E2E2E2E2E2E2E2E2E2E2E2E2E2E2E2E2E2E2E2E2E2E2E2E2E2E2E2E2E2E2E2E2E2E2E2E2E2E2E2E2E2E2E2E2E2E2E2E2E2E2E2E2E2E2E2E2E2E2E2E2E2E2E2E2E2E2E2E2E2E2E2E2E2E2E2E2E2E2E2E2E2E2E2E2E2E2E2E2E2E2E2E2E2E2E2E2E2E2E2E2E2E2E2E2E2E2E2E2E2E2E2E2E2E2E2E2E2E2E2E2E2
310
E2E2E2E2E2E2E2E2E2E2E2E2E2F5E2E2E2E2E2E2E2E2E2E2E2E2E2E2E2E2E2E2E2E2F5F5F5E2E2E2E2E2E2E2E2E2E2E2E2E2E2E2E2E2E2E2E2F5E2E2E2E2E2E2E2E2E2E2E2E2E2E2E2E2E2E2E2E2E2E2E2E2E2E2E2E2E2E2E2E2E2E2E2E2E2E2E2E2E2E2E2E2E2E2E2E2E2E2E2E2E2E2E2E2E2E2E2E2E2E2E2E2E2E2E2E2E2
310
E2E2E2E2E2E2E2E2E2E2E2E2E2E2E2E2E2E2E2E2E2E2E2E2E2E2E2E2E2E2E2E2E2E2E2E2E2E2E2E2E2E2E2E2E2E2E2E2E2E2E2E2E2E2E2E2E2E2E2E2E2E2E2E2E2E2F5E2E2E2E2E2E2E2E2E2E2E2E2E2E2E2E2E2E2E2E2F5F5F5E2E2E2E2E2E2E2E2E2E2E2E2E2E2E2E2E2E2E2E2F5F5F5F5F5F5F5F5F5F5F5F5F5F5F5F5F5
310
F5F5F5F5F5F5F5F5F5F5F5F5F5F5F5F5F5F5F5F5F5F5F5F5F5F5F5F5F5F5F5F5F5F5F5F5F5F5F5F5F5F5F5F5F5F5F5F5F5F5F5F5F5F5F5F5F5F5F5F5F5F5F5F5F5F5F5F5F5F5F5F5F5F5F5F5F5F5F5F5F5F5F5F5F5F5F5F5F5F5F5F5F5F5F5F5F5F5F5F5F5F5F5F5F5F5F5F5F5F5F5F5F5F5F5F5F5F5F5F5E2E2E2E2E2E2E2
310
E2E2E2E2E2E2E2E2E2E2E2E2E2F5F5F5E2E2E2E2E2E2E2E2E2E2E2E2E2E2E2E2E2E2E2E2E2E2E2E2E2E2E2E2E2E2E2E2E2E2E2E2E2E2E2E2E2E2E2E2E2E2E2E2E2E2E2E2E2E2E2E2E2E2E2E2E2E2E2E2E2E2E2E2E2E2E2E2E2E2E2E2E2E2E2E2E2E2E2E2E2E2E2E2E2E2E2E2E2E2E2E2E2E2E2E2E2E2E2E2E2E2E2E2E2E2E2
310
E2E2E2E2E2E2E2E2E2E2E2E2E2E2E2E2E2E2E2E2E2E2E2E2E2E2E2E2E2E2E2E2E2E2E2E2E2E2E2E2E2E2E2E2E2E2E2E2E2E2E2E2E2E2E2E2E2E2E2E2E2E2E2E2E2E2F5F5F5E2E2E2E2E2E2E2E2E2E2E2E2E2E2E2E2E2E2E2E2E2E2E2E2E2E2E2E2E2E2E2E2E2E2E2E2E2E2E2E2E2E2E2E2E2E2E2E2E2E2E2E2E2E2E2E2E2E2
310
E2E2E2E2E2E2E2E2E2E2E2E2E2E2E2E2E2E2E2E2E2E2E2E2E2E2E2E2E2E2E2E2E2E2E2E2E2E2E2E2E2E2E2E2E2E2E2E2E2E2E2E2E2E2E2E2E2E2E2E2E2E2E2E2E2E2E2E2E2E2E2E2E2E2E2E2E2E2E2E2E2E2E2E2E2E2E2E2E2E2E2E2E2E2E2E2E2E2E2E2E2E2E2E2E2E2E2E2E2E2E2E2E2E2E2E2E2E2E2F5F5F5E2E2E2E2E2
310
E2E2E2E2E2E2E2E2E2E2E2E2E2E2E2E2E2E2E2E2E2E2E2E2E2E2E2E2E2E2E2E2E2E2E2E2E2E2E2E2E2E2E2E2E2E2E2E2E2E2E2E2E2E2E2E2E2E2E2E2E2E2E2E2E2E2E2E2E2E2E2E2E2E2E2E2E2E2E2E2E2E2E2E2E2E2E2E2E2E2E2E2E2E2E2E2E2E2E2E2E2E2E2E2E2E2E2E2E2E2E2E2E2E2E2E2E2E2E2E2E2E2E2E2E2E2E2
310
E2E2E2E2E2E2E2E2E2E2E2E2E2E2E2E2E2E2E2E2E2E2E2E2E2E2E2E2E2E2E2E2E2E2E2E2E2E2E2E2E2E2E2E2E2F5F5F5E2E2E2E2E2E2E2E2E2E2E2E2E2E2E2E2E2E2E2E2E2E2E2E2E2E2E2E2E2E2E2E2E2E2E2E2E2E2E2E2E2E2E2E2E2E2E2E2E2E2E2E2E2E2E2E2E2E2E2E2E2E2E2E2E2E2E2E2E2E2E2E2E2E2E2E2E2E2E2
310
E2E2E2E2E2E2E2E2E2E2E2E2E2E2E2E2E2E2E2E2E2E2E2E2E2E2E2E2E2E2E2E2E2E2E2E2E2E2E2E2E2E2E2E2E2E2E2E2E2E2E2E2E2E2E2E2E2E2E2E2E2E2E2E2E2E2E2E2E2E2E2E2E2E2E2E2E2E2E2E2E2E2E2E2E2E2E2E2E2E2E2E2E2E2E2E2E2E2F5F5F5E2E2F5E2E2E2E2E2E2E2E2E2E2E2E2E2E2E2E2E2E2E2E2E2E2E2
310
E2E2E2E2E2E2E2E2E2E2E2E2E2E2E2E2E2E2E2E2E2E2E2E2E2E2E2E2E2E2E2E2E2E2E2E2E2E2E2E2E2E2E2E2E2E2E2E2E2E2E2E2E2E2E2E2E2E2E2E2E2E2E2E2E2E2E2E2E2E2E2E2E2E2E2E2E2E2E2E2E2E2E2E2E2E2E2E2E2E2E2E2E2E2E2E2E2E2E2E2E2E2E2E2E2E2E2E2E2E2E2E2E2E2E2E2E2E2E2E2E2E2E2E2E2E2E2
310
E2E2E2E2E2E2E2E2E2E2E2E2E2E2E2E2E2E2E2E2E2F5E2E2F5F5F5E2E2F5E2E2E2E2E2E2E2E2E2E2E2E2E2E2E2E2E2E2E2E2E2E2E2E2E2E2E2E2E2E2E2E2E2E2E2E2E2E2E2E2E2E2E2E2E2E2E2E2E2E2E2E2E2E2E2E2E2E2E2E2E2E2E2E2E2E2E2E2E2E2E2E2E2E2E2E2E2E2E2E2E2E2E2E2E2E2E2E2E2E2E2E2E2E2E2E2E2
310
E2E2E2E2E2E2E2E2E2E2E2E2E2E2E2E2E2E2E2E2E2E2E2E2E2E2E2E2E2E2E2E2E2E2E2E2E2E2E2E2E2E2E2E2E2E2E2E2E2E2E2E2E2E2E2E2E2E2E2E2E2E2E2E2E2E2E2E2E2E2E2E2E2E2F5E2E2F5F5F5E2E2F5E2E2E2E2E2E2E2E2E2E2E2E2E2E2E2E2E2E2E2E2E2E2E2E2E2E2E2E2E2E2E2E2E2E2E2E2E2E2E2E2E2E2E2E2
310
E2E2E2E2E2E2E2E2E2E2E2E2E2E2E2E2E2E2E2E2E2E2E2E2E2E2E2E2E2E2E2E2E2E2E2E2E2E2E2E2E2E2E2E2E2E2E2E2E2E2E2E2E2E2E2E2E2E2E2E2E2E2E2E2E2E2E2E2E2E2E2E2E2E2E2E2E2E2E2E2E2E2E2E2E2E2E2E2E2E2E2E2E2E2E2E2E2E2E2E2E2E2E2E2E2E2E2E2E2E2E2E2E2E2E2E2E2E2E2E2E2E2E2E2E2E2E2
310
F5E2E2F5F5F5E2E2F5E2E2E2E2E2E2E2E2E2E2E2E2E2E2E2E2E2E2E2E2E2E2E2E2E2E2E2E2E2E2E2E2E2E2E2E2E2E2E2E2E2E2E2E2E2E2E2E2E2E2E2E2E2E2E2E2E2E2E2E2E2E2E2E2E2E2E2E2E2E2E2E2E2E2E2E2E2E2E2E2E2E2E2E2E2E2E2E2E2E2E2E2E2E2E2E2E2E2E2E2E2E2E2E2E2E2E2E2E2E2E2E2E2E2E2E2E2E2
310
E2E2E2E2E2E2E2E2E2E2E2E2E2E2E2E2E2E2E2E2E2E2E2E2E2E2E2E2E2E2E2E2E2E2E2E2E2E2E2E2E2E2E2E2E2E2E2E2E2E2E2E2E2F5E2E2F5F5F5E2E2F5E2E2E2E2E2E2E2E2E2E2E2E2E2E2E2E2E2E2E2E2E2E2E2E2E2E2E2E2E2E2E2E2E2E2E2E2E2E2E2E2E2E2E2E2E2E2E2E2E2E2E2E2E2E2E2E2E2E2E2E2E2E2E2E2E2
310
E2E2E2E2E2E2E2E2E2E2E2E2E2E2E2E2E2E2E2E2E2E2E2E2E2E2E2E2E2E2E2E2E2E2E2E2E2E2E2E2E2E2E2E2E2E2E2E2E2E2E2E2E2E2E2E2E2E2E2E2E2E2E2E2E2E2E2E2E2E2E2E2E2E2E2E2E2E2E2E2E2E2E2E2E2E2E2E2E2E2E2E2E2E2E2E2E2E2E2E2E2E2E2E2E2E2F5E2E2F5F5F5E2E2F5E2E2E2E2E2E2E2E2E2E2E2E2
310
E2E2E2E2E2E2E2E2E2E2E2E2E2E2E2E2E2E2E2E2E2E2E2E2E2E2E2E2E2E2E2E2E2E2E2E2E2E2E2E2E2E2E2E2E2E2E2E2E2E2E2E2E2E2E2E2E2E2E2E2E2E2E2E2E2E2E2E2E2E2E2E2E2E2E2E2E2E2E2E2E2E2E2E2E2E2E2E2E2E2E2E2E2E2E2E2E2E2E2E2E2E2E2E2E2E2E2E2E2E2E2E2E2E2E2E2E2E2E2E2E2E2E2E2E2E2E2
310
E2E2E2E2E2E2E2E2E2E2E2E2E2E2E2E2E2E2E2E2E2E2E2E2E2E2E2E2E2E2E2E2F5E2E2F5F5F5E2E2F5E2E2E2E2E2E2E2E2E2E2E2E2E2E2E2E2E2E2E2E2E2E2E2E2E2E2E2E2E2E2E2E2E2E2E2E2E2E2E2E2E2E2E2E2E2E2E2E2E2E2E2E2E2E2E2E2E2E2E2E2E2E2E2E2E2E2E2E2E2E2E2E2E2E2E2E2E2E2E2E2E2E2E2E2E2E2
310
E2E2E2E2E2E2E2E2E2E2E2E2E2E2E2E2E2E2E2E2E2E2E2E2E2E2E2E2E2E2E2E2E2E2E2E2E2E2E2E2E2E2E2E2E2E2E2E2E2E2E2E2E2E2E2E2E2E2E2E2E2E2E2E2E2E2E2E2E2E2E2E2E2E2E2E2E2E2E2E2E2E2E2E2E2F5E2E2F5F5F5E2E2F5F5F5F5F5F5F5F5E2E2E2E2E2E2E2E2E2F5F5F5F5F5F5F5F5F5F5F5F5F5F5F5F5E2
310
E2E2E2E2E2E2E2E2F5F5F5F5F5F5F5F5F5F5F5F5F5F5F5F5E2E2E2E2E2E2E2E2F5F5F5F5F5F5F5F5F5F5F5F5F5F5F5F5E2E2E2E2E2E2E2E2E2F5F5F5F5F5F5F5F5F5F5F5F5F5F5F5F5E2E2E2E2E2E2E2E2F5F5F5F5F5F5F5F5F5F5F5F5F5F5F5F5E2E2E2E2E2E2E2E2E2F5F5F5F5F5F5F5F5F5F5F5F5F5F5F5F5E2E2E2E2E2
310
E2E2E2E2F5F5F5F5F5F5F5F5E2E2F5F5F5E2E2E2E2E2E2E2E2E2E2E2E2E2E2E2E2E2E2E2E2E2E2E2E2E2E2E2E2E2E2E2E2E2E2E2E2E2E2E2E2E2E2E2E2E2E2E2E2E2E2E2E2E2E2E2E2E2E2E2E2E2E2E2E2E2E2E2E2E2E2E2E2E2E2E2E2E2E2E2E2E2E2E2E2E2E2E2E2E2E2E2E2E2E2E2E2E2E2E2E2E2E2E2E2E2E2E2E2E2E2
310
E2E2E2E2E2E2E2E2E2E2E2E2E2E2E2E2E2E2E2E2E2E2E2E2E2E2E2E2E2E2E2E2E2E2E2E2E2E2E2E2E2E2E2E2E2E2E2E2E2E2E2E2E2E2E2E2E2E2E2E2E2E2E2E2E2E2E2F5F5F5E2E2E2E2E2E2E2E2E2E2E2E2E2E2E2E2E2E2E2E2E2E2E2E2E2E2E2E2E2E2E2E2E2E2E2E2E2E2E2E2E2E2E2E2E2E2E2E2E2E2E2E2E2E2E2E2E2
310
E2E2E2E2E2E2E2E2E2E2E2E2E2E2E2E2E2E2E2E2E2E2E2E2E2E2E2E2E2E2E2E2E2E2E2E2E2E2E2E2E2E2E2E2E2E2E2E2E2E2E2E2E2E2E2E2E2E2E2E2E2E2E2E2E2E2E2E2E2E2E2E2E2E2E2E2E2E2E2E2E2E2E2E2E2E2E2E2E2E2E2E2E2E2E2E2E2E2E2E2E2E2E2E2E2E2E2E2E2E2E2E2E2E2E2E2E2E2E2E2F5EFF5F5F5F5F5
310
F5F5F5F5F5F5F5F5F5F5F5F5F5F5F5F5F5F5F5F5F5F5F5F5F5F5F5F5F5F5F5F5F5F5F5F5F5F5F5F5F5F5F5F5F5F5F5F5F5F5F5F5F5F5F5F5F5F5F5F5F5F5F5F5F5F5F5F5F5F5F5F5F5F5F5F5F5F5F5F5F5F5F5F5F5F5F5F5F5F5F5F5F5F5F5F5F5F5F5F5F5F5F5F5F5F5F5F5F5F5F5F5F5F5F5F5F5F5F5F5F5F5F5F5F5F5F5
310
F5F5F5F5F5F5F5F5F5F5F5F5F5F5F5F5F5F5F5F5F5F5F5F5F5F5F5F5F5F5F5F5F5F5F5F5F5F5F5F5F5F5F5F5F5F5F5EF
  0
ENDSEC
  0
EOF
